  0
SECTION
  2
HEADER
  9
$ACADVER
  1
AC1009
  9
$INSBASE
 10
0.0
 20
0.0
 30
0.0
  9
$LIMMIN
 10
0.0
 20
0.0
  9
$LIMMAX
 10
420.0000
 20
297.0000
  9
$EXTMIN
 10
-972.7354
 20
-614.8611
  9
$EXTMAX
 10
1201.5912
 20
916.1551
  9
$VIEWCTR
 10
114.4279
 20
150.6470
  9
$VIEWSIZE
 40
1569.2916
  9
$DIMLFAC
 40
1.0000
  9
$MEASUREMENT
 70
     1
  9
$DWGCODEPAGE
 3
ANSI_1250
  9
$CLAYER
  8
0
  9
$CELTYPE
  6
BYLAYER
  9
$CECOLOR
 62
  256
  9
$ORTHOMODE
 70
     0
  9
$REGENMODE
 70
     1
  9
$FILLMODE
 70
     1
  9
$QTEXTMODE
 70
     0
  9
$MIRRTEXT
 70
     1
  9
$DRAGMODE
 70
     2
  9
$LTSCALE
 40
1.0
  9
$OSMODE
 70
    37
  9
$ATTMODE
 70
     1
  9
$TEXTSIZE
 40
2.5
  9
$TRACEWID
 40
1.0
  9
$TEXTSTYLE
  7
STANDARD
  9
$CLAYER
  8
0
  9
$CELTYPE
  6
BYLAYER
  9
$CECOLOR
 62
   256
  9
$DIMSCALE
 40
1.0
  9
$DIMASZ
 40
2.5
  9
$DIMEXO
 40
0.625
  9
$DIMDLI
 40
3.75
  9
$DIMRND
 40
0.0
  9
$DIMDLE
 40
0.0
  9
$DIMEXE
 40
1.25
  9
$DIMTP
 40
0.0
  9
$DIMTM
 40
0.0
  9
$DIMTXT
 40
2.5
  9
$DIMCEN
 40
2.5
  9
$DIMTSZ
 40
0.0
  9
$DIMTOL
 70
     0
  9
$DIMLIM
 70
     0
  9
$DIMTIH
 70
     0
  9
$DIMTOH
 70
     0
  9
$DIMSE1
 70
     0
  9
$DIMSE2
 70
     0
  9
$DIMTAD
 70
     1
  9
$DIMZIN
 70
     8
  9
$DIMBLK
  1

  9
$DIMASO
 70
     1
  9
$DIMSHO
 70
     1
  9
$DIMPOST
  1

  9
$DIMAPOST
  1

  9
$DIMALT
 70
     0
  9
$DIMALTD
 70
     3
  9
$DIMALTF
 40
0.03937007874016
  9
$DIMTOFL
 70
     1
  9
$DIMTVP
 40
0.0
  9
$DIMTIX
 70
     0
  9
$DIMSOXD
 70
     0
  9
$DIMSAH
 70
     0
  9
$DIMBLK1
  1

  9
$DIMBLK2
  1

  9
$DIMSTYLE
  2
ISO-25
  9
$DIMCLRD
 70
     0
  9
$DIMCLRE
 70
     0
  9
$DIMCLRT
 70
     0
  9
$DIMTFAC
 40
1.0
  9
$DIMGAP
 40
0.625
  9
$LUNITS
 70
     2
  9
$LUPREC
 70
     4
  9
$SKETCHINC
 40
1.0
  9
$FILLETRAD
 40
10.0
  9
$AUNITS
 70
     0
  9
$AUPREC
 70
     0
  9
$MENU
  1
.
  9
$ELEVATION
 40
0.0
  9
$PELEVATION
 40
0.0
  9
$THICKNESS
 40
0.0
  9
$LIMCHECK
 70
     0
  9
$BLIPMODE
 70
     0
  9
$CHAMFERA
 40
10.0
  9
$CHAMFERB
 40
10.0
  9
$SKPOLY
 70
     0
  9
$TDCREATE
 40
2451579.5163292708
  9
$TDUPDATE
 40
2451579.6904035881
  9
$TDINDWG
 40
0.0082924769
  9
$TDUSRTIMER
 40
0.0082825116
  9
$USRTIMER
 70
     1
  9
$ANGBASE
 50
0.0
  9
$ANGDIR
 70
     0
  9
$PDMODE
 70
     0
  9
$PDSIZE
 40
0.0
  9
$PLINEWID
 40
0.0
  9
$COORDS
 70
     1
  9
$SPLFRAME
 70
     0
  9
$SPLINETYPE
 70
     6
  9
$SPLINESEGS
 70
     8
  9
$ATTDIA
 70
     0
  9
$ATTREQ
 70
     1
  9
$SURFTAB1
 70
     6
  9
$SURFTAB2
 70
     6
  9
$SURFTYPE
 70
     6
  9
$SURFU
 70
     6
  9
$SURFV
 70
     6
  9
$UCSNAME
  2

  9
$UCSORG
 10
0.0
 20
0.0
 30
0.0
  9
$UCSXDIR
 10
1.0
 20
0.0
 30
0.0
  9
$UCSYDIR
 10
0.0
 20
1.0
 30
0.0
  9
$PUCSNAME
  2

  9
$PUCSORG
 10
0.0
 20
0.0
 30
0.0
  9
$PUCSXDIR
 10
1.0
 20
0.0
 30
0.0
  9
$PUCSYDIR
 10
0.0
 20
1.0
 30
0.0
  9
$USERI1
 70
     0
  9
$USERI2
 70
     0
  9
$USERI3
 70
     0
  9
$USERI4
 70
     0
  9
$USERI5
 70
     0
  9
$USERR1
 40
0.0
  9
$USERR2
 40
0.0
  9
$USERR3
 40
0.0
  9
$USERR4
 40
0.0
  9
$USERR5
 40
0.0
  9
$WORLDVIEW
 70
     1
  9
$SHADEDGE
 70
     3
  9
$SHADEDIF
 70
    70
  9
$TILEMODE
 70
     1
  9
$MAXACTVP
 70
    64
  9
$PLIMCHECK
 70
     0
  9
$PEXTMIN
 10
1.0000000000000000E+020
 20
1.0000000000000000E+020
 30
1.0000000000000000E+020
  9
$PEXTMAX
 10
-1.0000000000000000E+020
 20
-1.0000000000000000E+020
 30
-1.0000000000000000E+020
  9
$PLIMMIN
 10
0.0
 20
0.0
  9
$PLIMMAX
 10
420.0
 20
297.0
  9
$UNITMODE
 70
     0
  9
$VISRETAIN
 70
     1
  9
$PLINEGEN
 70
     0
  9
$PSLTSCALE
 70
     1
  0
ENDSEC
  0
SECTION
  2
TABLES
  0
TABLE
  2
VPORT
 70
     2
  0
VPORT
  2
*ACTIVE
 70
     0
 10
0.0
 20
0.0
 11
1.0
 21
1.0
 12
114.4279
 22
150.6470
 13
0.0
 23
0.0
 14
10.0
 24
10.0
 15
10.0
 25
10.0
 16
0.0
 26
0.0
 36
1.0
 17
0.0
 27
0.0
 37
0.0
 40
1569.2916
 41
1.6916
 42
50.0
 43
0.0
 44
0.0
 50
0.0
 51
0.0
 71
     0
 72
   100
 73
     1
 74
     3
 75
     0
 76
     0
 77
     0
 78
     0
  0
ENDTAB
  0
TABLE
  2
LTYPE
 70
     7
  0
LTYPE
  2
CONTINUOUS
 70
     0
  3
Solid line
 72
    65
 73
     0
 40
0.0
  0
LTYPE
  2
HIDDEN2
 70
     0
  3
Hidden (.5x) _ _ _ _ _ _ _ _ _ _ _ _ _ _ _ _ _
 72
    65
 73
     2
 40
5.1
 49
3.5
 49
-1.6
  0
LTYPE
  2
DASHDOT
 70
     0
  3
Dash dot __ . __ . __ . __ . __ . __ . __ . __
 72
    65
 73
     4
 40
10.4
 49
6.2
 49
-2.1
 49
0.0
 49
-2.1
  0
LTYPE
  2
DOT
 70
     0
  3
Dot . . . . . . . . . . . . . . . . . . . . . .
 72
    65
 73
     2
 40
2.2
 49
1.1
 49
-1.1
  0
LTYPE
  2
DASHED
 70
     0
  3
Dashed __ __ __ __ __ __ __ __ __ __ __ __ __ _
 72
    65
 73
     2
 40
11.049999999999979
 49
8.699999999999999
 49
-2.3499999999999979
  0
LTYPE
  2
PHANTOM2
 70
     0
  3
Phantom (.5x) ___ _ _ ___ _ _ ___ _ _ ___ _ _
 72
    65
 73
     6
 40
18.3
 49
7.8
 49
-2.1
 49
2.1
 49
-2.1
 49
2.1
 49
-2.1
  0
LTYPE
  2
CENTER
 70
     0
  3
Center ____ _ ____ _ ____ _ ____ _ ____ _ ____
 72
    65
 73
     4
 40
14.1
 49
7.8
 49
-2.1
 49
2.1
 49
-2.1
  0
ENDTAB
  0
TABLE
  2
LAYER
 70
     8
  0
LAYER
  2
0
 70
    64
 62
     7
  6
CONTINUOUS
  0
LAYER
  2
DEFPOINTS
 70
    64
 62
     7
  6
CONTINUOUS
  0
LAYER
  2
OBRYS
 70
    64
 62
     2
  6
CONTINUOUS
  0
LAYER
  2
OSA
 70
    64
 62
     7
  6
CENTER
  0
LAYER
  2
SRAFY
 70
    64
 62
     7
  6
CONTINUOUS
  0
LAYER
  2
KOTA
 70
    64
 62
     3
  6
CONTINUOUS
  0
LAYER
  2
NEVIDITELNA
 70
    64
 62
     4
  6
DASHED
  0
LAYER
  2
TENKA
 70
    64
 62
     7
  6
CONTINUOUS
  0
ENDTAB
  0
TABLE
  2
STYLE
 70
     1
  0
STYLE
  2
STANDARD
 70
     0
 40
0.0
 41
1.0
 50
0.0
 71
     0
 42
2.5
  3
txt
  4

  0
ENDTAB
  0
TABLE
  2
VIEW
 70
     0
  0
ENDTAB
  0
TABLE
  2
UCS
 70
     0
  0
ENDTAB
  0
TABLE
  2
APPID
 70
     1
  0
APPID
  2
ACAD
 70
     0
  0
ENDTAB
  0
TABLE
  2
DIMSTYLE
 70
     1
  0
DIMSTYLE
  2
ISO-25
 70
     0
  3

  4

  5

  6

  7

 40
1.0
 41
2.5
 42
0.625
 43
3.75
 44
1.25
 45
0.0
 46
0.0
 47
0.0
 48
0.0
140
2.5
141
2.5
142
0.0
143
0.03937007874016
144
1.0
145
0.0
146
1.0
147
0.625
 71
     0
 72
     0
 73
     0
 74
     0
 75
     0
 76
     0
 77
     1
 78
     8
170
     0
171
     3
172
     1
173
     0
174
     0
175
     0
176
     0
177
     0
178
     0
  0
ENDTAB
  0
ENDSEC
  0
SECTION
  2
BLOCKS
  0
BLOCK
  8
0
  2
$MODEL_SPACE
 70
     0
 10
0.0
 20
0.0
 30
0.0
  3
$MODEL_SPACE
  1

  0
ENDBLK
  8
0
  0
BLOCK
 67
     1
  8
0
  2
$PAPER_SPACE
 70
     0
 10
0.0
 20
0.0
 30
0.0
  3
$PAPER_SPACE
  1

  0
ENDBLK
 67
     1
  8
0
  0
ENDSEC
  0
SECTION
  2
ENTITIES
  0
LINE
  8
OSA
  6
DASHDOT
 10
193.507838
 20
-437.361129
 11
721.007838
 21
-437.361129
  0
LINE
  8
OSA
  6
DASHDOT
 10
721.007838
 20
738.655114
 11
193.507838
 21
738.655114
  0
LINE
  8
OSA
  6
DASHDOT
 10
1024.091151
 20
152.789876
 11
1024.091151
 21
8.141521
  0
LINE
  8
OSA
  6
DASHDOT
 10
1024.091151
 20
152.789876
 11
1024.091151
 21
297.438231
  0
LINE
  8
OSA
  6
DASHDOT
 10
1024.091151
 20
152.789876
 11
879.442796
 21
152.789876
  0
LINE
  8
OSA
  6
DASHDOT
 10
1024.091151
 20
152.789876
 11
1168.739506
 21
152.789876
  0
CIRCLE
  8
OSA
  6
DASHDOT
 10
1024.091151
 20
152.789876
 40
107.500000
  0
LINE
  8
OSA
  6
DASHDOT
 10
721.007838
 20
162.989876
 11
583.507838
 21
162.989876
  0
LINE
  8
OSA
  6
DASHDOT
 10
193.507838
 20
152.789876
 11
292.507838
 21
152.789876
  0
CIRCLE
  8
OSA
  6
DASHDOT
 10
-132.379115
 20
162.989876
 40
100.000000
  0
LINE
  8
OSA
  6
DASHDOT
 10
-132.379115
 20
162.989876
 11
-15.650650
 21
162.989876
  0
LINE
  8
OSA
  6
DASHDOT
 10
-132.379115
 20
162.989876
 11
-249.107580
 21
162.989876
  0
LINE
  8
OSA
  6
DASHDOT
 10
-132.379115
 20
162.989876
 11
-132.379115
 21
279.718341
  0
LINE
  8
OSA
  6
DASHDOT
 10
-132.379115
 20
162.989876
 11
-132.379115
 21
46.261411
  0
LINE
  8
OSA
  6
DASHDOT
 10
-445.235417
 20
152.789876
 11
-544.235417
 21
152.789876
  0
LINE
  8
OSA
  6
DASHDOT
 10
-972.735417
 20
162.989876
 11
-842.735417
 21
162.989876
  0
LINE
  8
0
  6
PHANTOM2
 10
216.403139
 20
-503.609230
 11
216.403139
 21
-371.113027
  0
LINE
  8
TENKA
  6
PHANTOM2
 10
211.577637
 20
-561.904721
 11
211.577637
 21
-312.817536
  0
LINE
  8
TENKA
  6
PHANTOM2
 10
331.007838
 20
-260.861129
 11
310.007838
 21
-260.861129
  0
ARC
  8
TENKA
  6
PHANTOM2
 10
556.007838
 20
-562.361129
 40
11.909159
 50
24.674584
 51
99.763231
  0
ARC
  8
TENKA
  6
PHANTOM2
 10
556.007838
 20
-562.361129
 40
11.909159
 50
254.722288
 51
335.325416
  0
ARC
  8
TENKA
  6
PHANTOM2
 10
246.007838
 20
-562.361129
 40
11.909159
 50
204.674584
 51
155.325416
  0
ARC
  8
TENKA
  6
PHANTOM2
 10
556.007838
 20
-312.361129
 40
11.909159
 50
24.674584
 51
105.277712
  0
ARC
  8
TENKA
  6
PHANTOM2
 10
556.007838
 20
-312.361129
 40
11.909159
 50
260.236769
 51
335.325416
  0
ARC
  8
TENKA
  6
PHANTOM2
 10
246.007838
 20
-312.361129
 40
11.909159
 50
204.674584
 51
155.325416
  0
CIRCLE
  8
TENKA
  6
PHANTOM2
 10
246.007838
 20
-562.361129
 40
12.712336
  0
ARC
  8
TENKA
  6
PHANTOM2
 10
556.007838
 20
-562.361129
 40
12.712336
 50
254.891224
 51
270.000000
  0
ARC
  8
TENKA
  6
PHANTOM2
 10
556.007838
 20
-562.361129
 40
12.712336
 50
270.000000
 51
96.680345
  0
LINE
  8
TENKA
  6
PHANTOM2
 10
218.507838
 20
-588.696253
 11
223.507838
 21
-588.696253
  0
LINE
  8
TENKA
  6
PHANTOM2
 10
583.507838
 20
-592.447542
 11
578.507838
 21
-592.447542
  0
LINE
  8
TENKA
  6
PHANTOM2
 10
218.507838
 20
-534.604823
 11
223.507838
 21
-534.604823
  0
ARC
  8
TENKA
  6
PHANTOM2
 10
556.007838
 20
-562.361129
 40
13.711727
 50
270.000000
 51
91.456195
  0
ARC
  8
TENKA
  6
PHANTOM2
 10
556.007838
 20
-562.361129
 40
13.711727
 50
254.948142
 51
270.000000
  0
LINE
  8
TENKA
  6
PHANTOM2
 10
578.507838
 20
-592.447542
 11
578.507838
 21
-547.763127
  0
LINE
  8
TENKA
  6
PHANTOM2
 10
223.507838
 20
-534.604823
 11
222.639597
 21
-529.680785
  0
LINE
  8
TENKA
  6
PHANTOM2
 10
258.408630
 20
-528.450872
 11
223.507838
 21
-534.604823
  0
LINE
  8
TENKA
  6
PHANTOM2
 10
223.507838
 20
-534.604823
 11
223.507838
 21
-588.696253
  0
CIRCLE
  8
TENKA
  6
PHANTOM2
 10
246.007838
 20
-562.361129
 40
13.711727
  0
LINE
  8
TENKA
  6
PHANTOM2
 10
222.639597
 20
-345.041473
 11
223.507838
 21
-340.117434
  0
ARC
  8
TENKA
  6
PHANTOM2
 10
556.007838
 20
-312.361129
 40
12.712336
 50
263.319655
 51
105.108776
  0
CIRCLE
  8
TENKA
  6
PHANTOM2
 10
246.007838
 20
-312.361129
 40
12.712336
  0
LINE
  8
TENKA
  6
PHANTOM2
 10
223.507838
 20
-340.117434
 11
218.507838
 21
-340.117434
  0
LINE
  8
TENKA
  6
PHANTOM2
 10
223.507838
 20
-286.026004
 11
218.507838
 21
-286.026004
  0
LINE
  8
TENKA
  6
PHANTOM2
 10
578.507838
 20
-282.274715
 11
583.507838
 21
-282.274715
  0
CIRCLE
  8
TENKA
  6
PHANTOM2
 10
246.007838
 20
-312.361129
 40
13.711727
  0
LINE
  8
TENKA
  6
PHANTOM2
 10
223.507838
 20
-340.117434
 11
258.408630
 21
-346.271385
  0
LINE
  8
TENKA
  6
PHANTOM2
 10
223.507838
 20
-286.026004
 11
223.507838
 21
-340.117434
  0
ARC
  8
TENKA
  6
PHANTOM2
 10
556.007838
 20
-312.361129
 40
13.711727
 50
270.000000
 51
105.051858
  0
ARC
  8
TENKA
  6
PHANTOM2
 10
556.007838
 20
-312.361129
 40
13.711727
 50
268.543805
 51
270.000000
  0
LINE
  8
TENKA
  6
PHANTOM2
 10
578.507838
 20
-326.959130
 11
578.507838
 21
-282.274715
  0
LINE
  8
TENKA
  6
PHANTOM2
 10
579.801933
 20
-597.277171
 11
578.507838
 21
-592.447542
  0
LINE
  8
TENKA
  6
PHANTOM2
 10
528.507838
 20
-605.845002
 11
578.507838
 21
-592.447542
  0
LINE
  8
TENKA
  6
PHANTOM2
 10
223.507838
 20
-286.026004
 11
222.213742
 21
-281.196375
  0
LINE
  8
TENKA
  6
PHANTOM2
 10
287.507838
 20
-268.877255
 11
223.507838
 21
-286.026004
  0
LINE
  8
TENKA
  6
PHANTOM2
 10
223.507838
 20
-588.696253
 11
287.507838
 21
-605.845002
  0
LINE
  8
TENKA
  6
PHANTOM2
 10
222.213742
 20
-593.525883
 11
223.507838
 21
-588.696253
  0
LINE
  8
TENKA
  6
PHANTOM2
 10
578.507838
 20
-282.274715
 11
528.507838
 21
-268.877255
  0
LINE
  8
TENKA
  6
PHANTOM2
 10
578.507838
 20
-282.274715
 11
579.801933
 21
-277.445086
  0
LINE
  8
TENKA
  6
PHANTOM2
 10
528.507838
 20
-605.845002
 11
528.318322
 21
-606.653846
  0
LINE
  8
TENKA
  6
PHANTOM2
 10
287.697353
 20
-606.653846
 11
287.507838
 21
-605.845002
  0
LINE
  8
TENKA
  6
PHANTOM2
 10
287.507838
 20
-605.845002
 11
287.507838
 21
-577.361129
  0
LINE
  8
TENKA
  6
PHANTOM2
 10
292.507838
 20
-605.845002
 11
287.507838
 21
-605.845002
  0
LINE
  8
TENKA
  6
PHANTOM2
 10
523.507838
 20
-605.845002
 11
528.507838
 21
-605.845002
  0
LINE
  8
TENKA
  6
PHANTOM2
 10
528.507838
 20
-600.228532
 11
528.507838
 21
-605.845002
  0
LINE
  8
TENKA
  6
PHANTOM2
 10
287.507838
 20
-297.361129
 11
287.507838
 21
-268.877255
  0
LINE
  8
TENKA
  6
PHANTOM2
 10
287.507838
 20
-268.877255
 11
287.697353
 21
-268.068411
  0
LINE
  8
TENKA
  6
PHANTOM2
 10
292.507838
 20
-268.877255
 11
287.507838
 21
-268.877255
  0
LINE
  8
TENKA
  6
PHANTOM2
 10
528.318322
 20
-268.068411
 11
528.507838
 21
-268.877255
  0
LINE
  8
TENKA
  6
PHANTOM2
 10
528.507838
 20
-268.877255
 11
523.507838
 21
-268.877255
  0
LINE
  8
TENKA
  6
PHANTOM2
 10
528.507838
 20
-268.877255
 11
528.507838
 21
-274.454381
  0
LINE
  8
TENKA
  6
PHANTOM2
 10
528.318322
 20
-606.653846
 11
527.691633
 21
-608.038245
  0
LINE
  8
TENKA
  6
PHANTOM2
 10
527.691633
 20
-608.038245
 11
527.523718
 21
-608.277506
  0
LINE
  8
TENKA
  6
PHANTOM2
 10
527.523718
 20
-608.277506
 11
526.082554
 21
-609.757617
  0
LINE
  8
TENKA
  6
PHANTOM2
 10
526.082554
 20
-609.757617
 11
523.727062
 21
-611.282558
  0
LINE
  8
TENKA
  6
PHANTOM2
 10
523.727062
 20
-611.282558
 11
521.886871
 21
-612.105359
  0
LINE
  8
TENKA
  6
PHANTOM2
 10
521.886871
 20
-612.105359
 11
521.177024
 21
-612.361129
  0
LINE
  8
TENKA
  6
PHANTOM2
 10
523.507838
 20
-607.361129
 11
523.599344
 21
-607.226337
  0
LINE
  8
TENKA
  6
PHANTOM2
 10
523.599344
 20
-607.226337
 11
523.870512
 21
-607.096478
  0
LINE
  8
TENKA
  6
PHANTOM2
 10
523.870512
 20
-607.096478
 11
524.311418
 21
-606.976307
  0
LINE
  8
TENKA
  6
PHANTOM2
 10
524.311418
 20
-606.976307
 11
524.905923
 21
-606.870221
  0
LINE
  8
TENKA
  6
PHANTOM2
 10
524.905923
 20
-606.870221
 11
525.632266
 21
-606.782104
  0
LINE
  8
TENKA
  6
PHANTOM2
 10
525.632266
 20
-606.782104
 11
526.463863
 21
-606.715180
  0
LINE
  8
TENKA
  6
PHANTOM2
 10
526.463863
 20
-606.715180
 11
527.370273
 21
-606.671899
  0
LINE
  8
TENKA
  6
PHANTOM2
 10
527.370273
 20
-606.671899
 11
528.318322
 21
-606.653846
  0
LINE
  8
TENKA
  6
PHANTOM2
 10
287.697353
 20
-268.068411
 11
288.324042
 21
-266.684012
  0
LINE
  8
TENKA
  6
PHANTOM2
 10
288.324042
 20
-266.684012
 11
288.491957
 21
-266.444751
  0
LINE
  8
TENKA
  6
PHANTOM2
 10
288.491957
 20
-266.444751
 11
289.933121
 21
-264.964641
  0
LINE
  8
TENKA
  6
PHANTOM2
 10
289.933121
 20
-264.964641
 11
292.288613
 21
-263.439699
  0
LINE
  8
TENKA
  6
PHANTOM2
 10
292.288613
 20
-263.439699
 11
294.128805
 21
-262.616898
  0
LINE
  8
TENKA
  6
PHANTOM2
 10
294.128805
 20
-262.616898
 11
294.838651
 21
-262.361129
  0
LINE
  8
TENKA
  6
PHANTOM2
 10
292.507838
 20
-267.361129
 11
292.416332
 21
-267.495921
  0
LINE
  8
TENKA
  6
PHANTOM2
 10
292.416332
 20
-267.495921
 11
292.145163
 21
-267.625779
  0
LINE
  8
TENKA
  6
PHANTOM2
 10
292.145163
 20
-267.625779
 11
291.704257
 21
-267.745950
  0
LINE
  8
TENKA
  6
PHANTOM2
 10
291.704257
 20
-267.745950
 11
291.109752
 21
-267.852036
  0
LINE
  8
TENKA
  6
PHANTOM2
 10
291.109752
 20
-267.852036
 11
290.383409
 21
-267.940154
  0
LINE
  8
TENKA
  6
PHANTOM2
 10
290.383409
 20
-267.940154
 11
289.551812
 21
-268.007078
  0
LINE
  8
TENKA
  6
PHANTOM2
 10
289.551812
 20
-268.007078
 11
288.645402
 21
-268.050358
  0
LINE
  8
TENKA
  6
PHANTOM2
 10
288.645402
 20
-268.050358
 11
287.697353
 21
-268.068411
  0
LINE
  8
TENKA
  6
PHANTOM2
 10
292.507838
 20
-607.361129
 11
292.416332
 21
-607.226337
  0
LINE
  8
TENKA
  6
PHANTOM2
 10
292.416332
 20
-607.226337
 11
292.145163
 21
-607.096478
  0
LINE
  8
TENKA
  6
PHANTOM2
 10
292.145163
 20
-607.096478
 11
291.704257
 21
-606.976307
  0
LINE
  8
TENKA
  6
PHANTOM2
 10
291.704257
 20
-606.976307
 11
291.109752
 21
-606.870221
  0
LINE
  8
TENKA
  6
PHANTOM2
 10
291.109752
 20
-606.870221
 11
290.383409
 21
-606.782104
  0
LINE
  8
TENKA
  6
PHANTOM2
 10
290.383409
 20
-606.782104
 11
289.551812
 21
-606.715180
  0
LINE
  8
TENKA
  6
PHANTOM2
 10
289.551812
 20
-606.715180
 11
288.645402
 21
-606.671899
  0
LINE
  8
TENKA
  6
PHANTOM2
 10
288.645402
 20
-606.671899
 11
287.697353
 21
-606.653846
  0
LINE
  8
TENKA
  6
PHANTOM2
 10
294.838651
 20
-612.361129
 11
294.433719
 21
-612.219058
  0
LINE
  8
TENKA
  6
PHANTOM2
 10
294.433719
 20
-612.219058
 11
292.281782
 21
-611.279015
  0
LINE
  8
TENKA
  6
PHANTOM2
 10
292.281782
 20
-611.279015
 11
289.530314
 21
-609.410782
  0
LINE
  8
TENKA
  6
PHANTOM2
 10
289.530314
 20
-609.410782
 11
288.169759
 21
-607.792577
  0
LINE
  8
TENKA
  6
PHANTOM2
 10
288.169759
 20
-607.792577
 11
287.697353
 21
-606.653846
  0
LINE
  8
TENKA
  6
PHANTOM2
 10
528.318322
 20
-268.068411
 11
527.370273
 21
-268.050358
  0
LINE
  8
TENKA
  6
PHANTOM2
 10
527.370273
 20
-268.050358
 11
526.463863
 21
-268.007078
  0
LINE
  8
TENKA
  6
PHANTOM2
 10
526.463863
 20
-268.007078
 11
525.632266
 21
-267.940154
  0
LINE
  8
TENKA
  6
PHANTOM2
 10
525.632266
 20
-267.940154
 11
524.905923
 21
-267.852036
  0
LINE
  8
TENKA
  6
PHANTOM2
 10
524.905923
 20
-267.852036
 11
524.311418
 21
-267.745950
  0
LINE
  8
TENKA
  6
PHANTOM2
 10
524.311418
 20
-267.745950
 11
523.870512
 21
-267.625779
  0
LINE
  8
TENKA
  6
PHANTOM2
 10
523.870512
 20
-267.625779
 11
523.599344
 21
-267.495921
  0
LINE
  8
TENKA
  6
PHANTOM2
 10
523.599344
 20
-267.495921
 11
523.507838
 21
-267.361129
  0
LINE
  8
TENKA
  6
PHANTOM2
 10
521.177024
 20
-262.361129
 11
521.581957
 21
-262.503200
  0
LINE
  8
TENKA
  6
PHANTOM2
 10
521.581957
 20
-262.503200
 11
523.733893
 21
-263.443243
  0
LINE
  8
TENKA
  6
PHANTOM2
 10
523.733893
 20
-263.443243
 11
526.485361
 21
-265.311475
  0
LINE
  8
TENKA
  6
PHANTOM2
 10
526.485361
 20
-265.311475
 11
527.845916
 21
-266.929680
  0
LINE
  8
TENKA
  6
PHANTOM2
 10
527.845916
 20
-266.929680
 11
528.318322
 21
-268.068411
  0
LINE
  8
TENKA
  6
PHANTOM2
 10
448.007838
 20
-613.861129
 11
469.007838
 21
-613.861129
  0
ARC
  8
TENKA
  6
PHANTOM2
 10
518.613042
 20
-602.535200
 40
4.763895
 50
268.734595
 51
351.481273
  0
ARC
  8
TENKA
  6
PHANTOM2
 10
518.613346
 20
-272.186320
 40
4.763164
 50
8.590665
 51
91.269255
  0
LINE
  8
TENKA
  6
PHANTOM2
 10
518.866821
 20
-604.987756
 11
520.496405
 21
-604.924299
  0
LINE
  8
TENKA
  6
PHANTOM2
 10
520.496405
 20
-604.924299
 11
520.832091
 21
-604.833197
  0
LINE
  8
TENKA
  6
PHANTOM2
 10
518.866821
 20
-269.734501
 11
520.496405
 21
-269.797958
  0
LINE
  8
TENKA
  6
PHANTOM2
 10
520.496405
 20
-269.797958
 11
520.832353
 21
-269.889131
  0
ARC
  8
TENKA
  6
PHANTOM2
 10
525.770907
 20
-575.275891
 40
22.081932
 50
264.117708
 51
286.995426
  0
ARC
  8
TENKA
  6
PHANTOM2
 10
525.818117
 20
-298.877350
 40
21.521008
 50
72.553846
 51
96.162574
  0
LINE
  8
TENKA
  6
PHANTOM2
 10
269.507838
 20
-312.872339
 11
269.507838
 21
-330.872339
  0
LINE
  8
TENKA
  6
PHANTOM2
 10
269.507838
 20
-543.842221
 11
269.507838
 21
-561.842221
  0
LINE
  8
TENKA
  6
PHANTOM2
 10
558.507838
 20
-547.345823
 11
558.507838
 21
-547.763127
  0
LINE
  8
TENKA
  6
PHANTOM2
 10
558.507838
 20
-326.959130
 11
558.507838
 21
-327.376435
  0
LINE
  8
TENKA
  6
PHANTOM2
 10
227.415927
 20
-503.361129
 11
227.415927
 21
-371.361129
  0
LINE
  8
TENKA
  6
PHANTOM2
 10
558.507838
 20
-500.794711
 11
558.507838
 21
-506.431890
  0
LINE
  8
TENKA
  6
PHANTOM2
 10
558.507838
 20
-368.290367
 11
558.507838
 21
-373.927546
  0
LINE
  8
TENKA
  6
PHANTOM2
 10
558.507838
 20
-547.345823
 11
588.507838
 21
-547.345823
  0
LINE
  8
TENKA
  6
PHANTOM2
 10
558.507838
 20
-327.376435
 11
588.507838
 21
-327.376435
  0
LINE
  8
TENKA
  6
PHANTOM2
 10
558.507838
 20
-506.431890
 11
588.507838
 21
-506.431890
  0
LINE
  8
TENKA
  6
PHANTOM2
 10
558.507838
 20
-368.290367
 11
588.507838
 21
-368.290367
  0
LINE
  8
TENKA
  6
PHANTOM2
 10
558.507838
 20
-527.780733
 11
588.507838
 21
-527.780733
  0
LINE
  8
TENKA
  6
PHANTOM2
 10
558.507838
 20
-533.916985
 11
588.507838
 21
-533.916985
  0
LINE
  8
TENKA
  6
PHANTOM2
 10
558.507838
 20
-340.805272
 11
588.507838
 21
-340.805272
  0
LINE
  8
TENKA
  6
PHANTOM2
 10
558.507838
 20
-346.941524
 11
588.507838
 21
-346.941524
  0
ARC
  8
TENKA
  6
PHANTOM2
 10
558.307893
 20
-552.146670
 40
4.805010
 50
87.615131
 51
177.397820
  0
LINE
  8
TENKA
  6
PHANTOM2
 10
558.507838
 20
-533.916985
 11
558.507838
 21
-547.345823
  0
LINE
  8
TENKA
  6
PHANTOM2
 10
558.507838
 20
-327.376435
 11
558.507838
 21
-340.805272
  0
ARC
  8
TENKA
  6
PHANTOM2
 10
558.307893
 20
-322.575587
 40
4.805010
 50
182.602180
 51
272.384869
  0
LINE
  8
TENKA
  6
PHANTOM2
 10
558.507838
 20
-506.431890
 11
558.507838
 21
-527.780733
  0
LINE
  8
TENKA
  6
PHANTOM2
 10
553.507838
 20
-504.318799
 11
553.603911
 21
-504.731043
  0
LINE
  8
TENKA
  6
PHANTOM2
 10
553.603911
 20
-504.731043
 11
553.888440
 21
-505.127444
  0
LINE
  8
TENKA
  6
PHANTOM2
 10
553.888440
 20
-505.127444
 11
554.350490
 21
-505.492770
  0
LINE
  8
TENKA
  6
PHANTOM2
 10
554.350490
 20
-505.492770
 11
554.972304
 21
-505.812980
  0
LINE
  8
TENKA
  6
PHANTOM2
 10
554.972304
 20
-505.812980
 11
555.729986
 21
-506.075770
  0
LINE
  8
TENKA
  6
PHANTOM2
 10
555.729986
 20
-506.075770
 11
556.594420
 21
-506.271041
  0
LINE
  8
TENKA
  6
PHANTOM2
 10
556.594420
 20
-506.271041
 11
557.532386
 21
-506.391288
  0
LINE
  8
TENKA
  6
PHANTOM2
 10
557.532386
 20
-506.391288
 11
558.507838
 21
-506.431890
  0
LINE
  8
TENKA
  6
PHANTOM2
 10
553.507838
 20
-370.403458
 11
553.603911
 21
-369.991215
  0
LINE
  8
TENKA
  6
PHANTOM2
 10
553.603911
 20
-369.991215
 11
553.888440
 21
-369.594813
  0
LINE
  8
TENKA
  6
PHANTOM2
 10
553.888440
 20
-369.594813
 11
554.350490
 21
-369.229488
  0
LINE
  8
TENKA
  6
PHANTOM2
 10
554.350490
 20
-369.229488
 11
554.972304
 21
-368.909277
  0
LINE
  8
TENKA
  6
PHANTOM2
 10
554.972304
 20
-368.909277
 11
555.729986
 21
-368.646487
  0
LINE
  8
TENKA
  6
PHANTOM2
 10
555.729986
 20
-368.646487
 11
556.594420
 21
-368.451217
  0
LINE
  8
TENKA
  6
PHANTOM2
 10
556.594420
 20
-368.451217
 11
557.532386
 21
-368.330969
  0
LINE
  8
TENKA
  6
PHANTOM2
 10
557.532386
 20
-368.330969
 11
558.507838
 21
-368.290367
  0
LINE
  8
TENKA
  6
PHANTOM2
 10
558.507838
 20
-346.941524
 11
558.507838
 21
-368.290367
  0
ARC
  8
TENKA
  6
PHANTOM2
 10
558.067129
 20
-538.487861
 40
4.592072
 50
84.492751
 51
173.149796
  0
LINE
  8
TENKA
  6
PHANTOM2
 10
558.507838
 20
-527.780733
 11
558.507838
 21
-533.916985
  0
LINE
  8
TENKA
  6
PHANTOM2
 10
553.507838
 20
-525.667642
 11
553.603911
 21
-526.079886
  0
LINE
  8
TENKA
  6
PHANTOM2
 10
553.603911
 20
-526.079886
 11
553.888440
 21
-526.476287
  0
LINE
  8
TENKA
  6
PHANTOM2
 10
553.888440
 20
-526.476287
 11
554.350490
 21
-526.841612
  0
LINE
  8
TENKA
  6
PHANTOM2
 10
554.350490
 20
-526.841612
 11
554.972304
 21
-527.161823
  0
LINE
  8
TENKA
  6
PHANTOM2
 10
554.972304
 20
-527.161823
 11
555.729986
 21
-527.424613
  0
LINE
  8
TENKA
  6
PHANTOM2
 10
555.729986
 20
-527.424613
 11
556.594420
 21
-527.619884
  0
LINE
  8
TENKA
  6
PHANTOM2
 10
556.594420
 20
-527.619884
 11
557.532386
 21
-527.740131
  0
LINE
  8
TENKA
  6
PHANTOM2
 10
557.532386
 20
-527.740131
 11
558.507838
 21
-527.780733
  0
LINE
  8
TENKA
  6
PHANTOM2
 10
553.507838
 20
-349.054615
 11
553.603911
 21
-348.642372
  0
LINE
  8
TENKA
  6
PHANTOM2
 10
553.603911
 20
-348.642372
 11
553.888440
 21
-348.245970
  0
LINE
  8
TENKA
  6
PHANTOM2
 10
553.888440
 20
-348.245970
 11
554.350490
 21
-347.880645
  0
LINE
  8
TENKA
  6
PHANTOM2
 10
554.350490
 20
-347.880645
 11
554.972304
 21
-347.560434
  0
LINE
  8
TENKA
  6
PHANTOM2
 10
554.972304
 20
-347.560434
 11
555.729986
 21
-347.297644
  0
LINE
  8
TENKA
  6
PHANTOM2
 10
555.729986
 20
-347.297644
 11
556.594420
 21
-347.102374
  0
LINE
  8
TENKA
  6
PHANTOM2
 10
556.594420
 20
-347.102374
 11
557.532386
 21
-346.982127
  0
LINE
  8
TENKA
  6
PHANTOM2
 10
557.532386
 20
-346.982127
 11
558.507838
 21
-346.941524
  0
LINE
  8
TENKA
  6
PHANTOM2
 10
558.507838
 20
-340.805272
 11
558.507838
 21
-346.941524
  0
ARC
  8
TENKA
  6
PHANTOM2
 10
558.067129
 20
-336.234397
 40
4.592072
 50
186.850204
 51
275.507249
  0
LINE
  8
TENKA
  6
PHANTOM2
 10
558.507838
 20
-500.794711
 11
588.507838
 21
-500.794711
  0
LINE
  8
TENKA
  6
PHANTOM2
 10
558.507838
 20
-373.927546
 11
588.507838
 21
-373.927546
  0
LINE
  8
TENKA
  6
PHANTOM2
 10
558.507838
 20
-460.935706
 11
588.507838
 21
-460.935706
  0
LINE
  8
TENKA
  6
PHANTOM2
 10
558.507838
 20
-413.786551
 11
588.507838
 21
-413.786551
  0
LINE
  8
TENKA
  6
PHANTOM2
 10
558.507838
 20
-457.264432
 11
558.507838
 21
-460.935706
  0
LINE
  8
TENKA
  6
PHANTOM2
 10
553.507838
 20
-504.318799
 11
553.603911
 21
-503.631284
  0
LINE
  8
TENKA
  6
PHANTOM2
 10
553.603911
 20
-503.631284
 11
553.888440
 21
-502.970189
  0
LINE
  8
TENKA
  6
PHANTOM2
 10
553.888440
 20
-502.970189
 11
554.350490
 21
-502.360921
  0
LINE
  8
TENKA
  6
PHANTOM2
 10
554.350490
 20
-502.360921
 11
554.972304
 21
-501.826892
  0
LINE
  8
TENKA
  6
PHANTOM2
 10
554.972304
 20
-501.826892
 11
555.729986
 21
-501.388627
  0
LINE
  8
TENKA
  6
PHANTOM2
 10
555.729986
 20
-501.388627
 11
556.594420
 21
-501.062966
  0
LINE
  8
TENKA
  6
PHANTOM2
 10
556.594420
 20
-501.062966
 11
557.532386
 21
-500.862425
  0
LINE
  8
TENKA
  6
PHANTOM2
 10
557.532386
 20
-500.862425
 11
558.507838
 21
-500.794711
  0
LINE
  8
TENKA
  6
PHANTOM2
 10
558.507838
 20
-460.935706
 11
558.507838
 21
-500.794711
  0
LINE
  8
TENKA
  6
PHANTOM2
 10
553.507838
 20
-462.245405
 11
553.603911
 21
-461.989895
  0
LINE
  8
TENKA
  6
PHANTOM2
 10
553.603911
 20
-461.989895
 11
553.888440
 21
-461.744205
  0
LINE
  8
TENKA
  6
PHANTOM2
 10
553.888440
 20
-461.744205
 11
554.350490
 21
-461.517775
  0
LINE
  8
TENKA
  6
PHANTOM2
 10
554.350490
 20
-461.517775
 11
554.972304
 21
-461.319308
  0
LINE
  8
TENKA
  6
PHANTOM2
 10
554.972304
 20
-461.319308
 11
555.729986
 21
-461.156430
  0
LINE
  8
TENKA
  6
PHANTOM2
 10
555.729986
 20
-461.156430
 11
556.594420
 21
-461.035401
  0
LINE
  8
TENKA
  6
PHANTOM2
 10
556.594420
 20
-461.035401
 11
557.532386
 21
-460.960872
  0
LINE
  8
TENKA
  6
PHANTOM2
 10
557.532386
 20
-460.960872
 11
558.507838
 21
-460.935706
  0
LINE
  8
TENKA
  6
PHANTOM2
 10
558.507838
 20
-413.786551
 11
558.507838
 21
-417.457826
  0
LINE
  8
TENKA
  6
PHANTOM2
 10
553.507838
 20
-412.476852
 11
553.603911
 21
-412.732362
  0
LINE
  8
TENKA
  6
PHANTOM2
 10
553.603911
 20
-412.732362
 11
553.888440
 21
-412.978052
  0
LINE
  8
TENKA
  6
PHANTOM2
 10
553.888440
 20
-412.978052
 11
554.350490
 21
-413.204482
  0
LINE
  8
TENKA
  6
PHANTOM2
 10
554.350490
 20
-413.204482
 11
554.972304
 21
-413.402949
  0
LINE
  8
TENKA
  6
PHANTOM2
 10
554.972304
 20
-413.402949
 11
555.729986
 21
-413.565827
  0
LINE
  8
TENKA
  6
PHANTOM2
 10
555.729986
 20
-413.565827
 11
556.594420
 21
-413.686856
  0
LINE
  8
TENKA
  6
PHANTOM2
 10
556.594420
 20
-413.686856
 11
557.532386
 21
-413.761386
  0
LINE
  8
TENKA
  6
PHANTOM2
 10
557.532386
 20
-413.761386
 11
558.507838
 21
-413.786551
  0
LINE
  8
TENKA
  6
PHANTOM2
 10
558.507838
 20
-373.927546
 11
558.507838
 21
-413.786551
  0
LINE
  8
TENKA
  6
PHANTOM2
 10
553.507838
 20
-370.403458
 11
553.603911
 21
-371.090974
  0
LINE
  8
TENKA
  6
PHANTOM2
 10
553.603911
 20
-371.090974
 11
553.888440
 21
-371.752068
  0
LINE
  8
TENKA
  6
PHANTOM2
 10
553.888440
 20
-371.752068
 11
554.350490
 21
-372.361337
  0
LINE
  8
TENKA
  6
PHANTOM2
 10
554.350490
 20
-372.361337
 11
554.972304
 21
-372.895365
  0
LINE
  8
TENKA
  6
PHANTOM2
 10
554.972304
 20
-372.895365
 11
555.729986
 21
-373.333630
  0
LINE
  8
TENKA
  6
PHANTOM2
 10
555.729986
 20
-373.333630
 11
556.594420
 21
-373.659291
  0
LINE
  8
TENKA
  6
PHANTOM2
 10
556.594420
 20
-373.659291
 11
557.532386
 21
-373.859832
  0
LINE
  8
TENKA
  6
PHANTOM2
 10
557.532386
 20
-373.859832
 11
558.507838
 21
-373.927546
  0
LINE
  8
TENKA
  6
PHANTOM2
 10
229.344290
 20
-370.659262
 11
229.344290
 21
-504.062995
  0
LINE
  8
TENKA
  6
PHANTOM2
 10
274.436200
 20
-380.525700
 11
274.436200
 21
-332.822656
  0
LINE
  8
TENKA
  6
PHANTOM2
 10
274.436200
 20
-476.196558
 11
274.436200
 21
-398.525700
  0
LINE
  8
TENKA
  6
PHANTOM2
 10
274.436200
 20
-541.899601
 11
274.436200
 21
-494.196558
  0
LINE
  8
TENKA
  6
PHANTOM2
 10
269.507838
 20
-476.196558
 11
269.507838
 21
-494.196558
  0
LINE
  8
TENKA
  6
PHANTOM2
 10
269.507838
 20
-380.525700
 11
269.507838
 21
-398.525700
  0
LINE
  8
TENKA
  6
PHANTOM2
 10
558.507838
 20
-457.264432
 11
588.507838
 21
-457.264432
  0
LINE
  8
TENKA
  6
PHANTOM2
 10
558.507838
 20
-417.457826
 11
588.507838
 21
-417.457826
  0
ARC
  8
TENKA
  6
PHANTOM2
 10
558.498342
 20
-462.254936
 40
4.990514
 50
89.890987
 51
179.890570
  0
LINE
  8
TENKA
  6
PHANTOM2
 10
558.507838
 20
-455.148207
 11
558.507838
 21
-457.264432
  0
LINE
  8
TENKA
  6
PHANTOM2
 10
558.507838
 20
-417.457826
 11
558.507838
 21
-419.574050
  0
ARC
  8
TENKA
  6
PHANTOM2
 10
558.498342
 20
-412.467321
 40
4.990514
 50
180.109430
 51
270.109013
  0
LINE
  8
TENKA
  6
PHANTOM2
 10
558.507838
 20
-455.148207
 11
588.507838
 21
-455.148207
  0
ARC
  8
TENKA
  6
PHANTOM2
 10
558.498342
 20
-460.138712
 40
4.990514
 50
89.890987
 51
179.890570
  0
LINE
  8
TENKA
  6
PHANTOM2
 10
558.507838
 20
-450.167234
 11
558.507838
 21
-455.148207
  0
LINE
  8
TENKA
  6
PHANTOM2
 10
558.507838
 20
-419.574050
 11
588.507838
 21
-419.574050
  0
LINE
  8
TENKA
  6
PHANTOM2
 10
558.507838
 20
-419.574050
 11
558.507838
 21
-424.555024
  0
ARC
  8
TENKA
  6
PHANTOM2
 10
558.498342
 20
-414.583545
 40
4.990514
 50
180.109430
 51
270.109013
  0
LINE
  8
TENKA
  6
PHANTOM2
 10
297.507838
 20
-572.361129
 11
297.507838
 21
-612.361129
  0
LINE
  8
TENKA
  6
PHANTOM2
 10
518.507838
 20
-612.361129
 11
518.507838
 21
-607.297933
  0
LINE
  8
TENKA
  6
PHANTOM2
 10
518.507838
 20
-607.297933
 11
518.538107
 21
-607.013345
  0
LINE
  8
TENKA
  6
PHANTOM2
 10
518.538107
 20
-607.013345
 11
518.628900
 21
-606.750442
  0
LINE
  8
TENKA
  6
PHANTOM2
 10
518.628900
 20
-606.750442
 11
518.780218
 21
-606.511313
  0
LINE
  8
TENKA
  6
PHANTOM2
 10
518.780218
 20
-606.511313
 11
518.992061
 21
-606.297814
  0
LINE
  8
TENKA
  6
PHANTOM2
 10
518.992061
 20
-606.297814
 11
519.171791
 21
-606.163753
  0
LINE
  8
TENKA
  6
PHANTOM2
 10
519.171791
 20
-606.163753
 11
519.355693
 21
-606.026096
  0
LINE
  8
TENKA
  6
PHANTOM2
 10
519.355693
 20
-606.026096
 11
519.280124
 21
-605.894475
  0
LINE
  8
TENKA
  6
PHANTOM2
 10
519.280124
 20
-605.894475
 11
518.963789
 21
-605.701154
  0
LINE
  8
TENKA
  6
PHANTOM2
 10
518.963789
 20
-605.701154
 11
518.683519
 21
-605.547588
  0
LINE
  8
TENKA
  6
PHANTOM2
 10
518.683519
 20
-605.547588
 11
518.494643
 21
-605.423409
  0
LINE
  8
TENKA
  6
PHANTOM2
 10
518.494643
 20
-605.423409
 11
518.397160
 21
-605.329454
  0
LINE
  8
TENKA
  6
PHANTOM2
 10
518.397160
 20
-605.329454
 11
518.445198
 21
-605.138442
  0
LINE
  8
TENKA
  6
PHANTOM2
 10
518.445198
 20
-605.138442
 11
518.866821
 21
-604.987756
  0
LINE
  8
TENKA
  6
PHANTOM2
 10
518.866821
 20
-604.987756
 11
519.347234
 21
-604.824187
  0
LINE
  8
TENKA
  6
PHANTOM2
 10
519.347234
 20
-604.824187
 11
519.488291
 21
-604.585119
  0
LINE
  8
TENKA
  6
PHANTOM2
 10
519.488291
 20
-604.585119
 11
519.328636
 21
-604.343167
  0
LINE
  8
TENKA
  6
PHANTOM2
 10
519.328636
 20
-604.343167
 11
519.007636
 21
-603.996355
  0
LINE
  8
TENKA
  6
PHANTOM2
 10
519.007636
 20
-603.996355
 11
518.884461
 21
-603.731340
  0
LINE
  8
TENKA
  6
PHANTOM2
 10
518.884461
 20
-603.731340
 11
518.917104
 21
-603.645302
  0
LINE
  8
TENKA
  6
PHANTOM2
 10
518.917104
 20
-603.645302
 11
519.034733
 21
-603.511041
  0
LINE
  8
TENKA
  6
PHANTOM2
 10
519.034733
 20
-603.511041
 11
519.249190
 21
-603.281415
  0
LINE
  8
TENKA
  6
PHANTOM2
 10
519.249190
 20
-603.281415
 11
519.413132
 21
-603.107216
  0
LINE
  8
TENKA
  6
PHANTOM2
 10
519.413132
 20
-603.107216
 11
519.564179
 21
-602.944726
  0
LINE
  8
TENKA
  6
PHANTOM2
 10
519.564179
 20
-602.944726
 11
520.887129
 21
-601.434537
  0
LINE
  8
TENKA
  6
PHANTOM2
 10
520.887129
 20
-601.434537
 11
521.282993
 21
-600.950874
  0
LINE
  8
TENKA
  6
PHANTOM2
 10
521.282993
 20
-600.950874
 11
521.673785
 21
-600.458278
  0
LINE
  8
TENKA
  6
PHANTOM2
 10
521.673785
 20
-600.458278
 11
522.059504
 21
-599.956845
  0
LINE
  8
TENKA
  6
PHANTOM2
 10
522.059504
 20
-599.956845
 11
522.440150
 21
-599.446672
  0
LINE
  8
TENKA
  6
PHANTOM2
 10
522.440150
 20
-599.446672
 11
522.559771
 21
-599.107441
  0
LINE
  8
TENKA
  6
PHANTOM2
 10
522.559771
 20
-599.107441
 11
522.523310
 21
-598.703210
  0
LINE
  8
TENKA
  6
PHANTOM2
 10
522.523310
 20
-598.703210
 11
522.446816
 21
-598.312765
  0
LINE
  8
TENKA
  6
PHANTOM2
 10
522.446816
 20
-598.312765
 11
522.605863
 21
-597.741359
  0
LINE
  8
TENKA
  6
PHANTOM2
 10
522.605863
 20
-597.741359
 11
522.946216
 21
-597.474008
  0
LINE
  8
TENKA
  6
PHANTOM2
 10
522.946216
 20
-597.474008
 11
523.507838
 21
-597.241551
  0
LINE
  8
TENKA
  6
PHANTOM2
 10
297.507838
 20
-262.361129
 11
297.507838
 21
-302.361129
  0
LINE
  8
TENKA
  6
PHANTOM2
 10
523.507838
 20
-277.480706
 11
523.114549
 21
-277.332748
  0
LINE
  8
TENKA
  6
PHANTOM2
 10
523.114549
 20
-277.332748
 11
522.813621
 21
-277.165210
  0
LINE
  8
TENKA
  6
PHANTOM2
 10
522.813621
 20
-277.165210
 11
522.605054
 21
-276.978433
  0
LINE
  8
TENKA
  6
PHANTOM2
 10
522.605054
 20
-276.978433
 11
522.457264
 21
-276.311326
  0
LINE
  8
TENKA
  6
PHANTOM2
 10
522.457264
 20
-276.311326
 11
522.574757
 21
-275.635533
  0
LINE
  8
TENKA
  6
PHANTOM2
 10
522.574757
 20
-275.635533
 11
522.252333
 21
-275.021836
  0
LINE
  8
TENKA
  6
PHANTOM2
 10
522.252333
 20
-275.021836
 11
521.807082
 21
-274.435406
  0
LINE
  8
TENKA
  6
PHANTOM2
 10
521.807082
 20
-274.435406
 11
521.352013
 21
-273.857227
  0
LINE
  8
TENKA
  6
PHANTOM2
 10
521.352013
 20
-273.857227
 11
520.887129
 21
-273.287720
  0
LINE
  8
TENKA
  6
PHANTOM2
 10
520.887129
 20
-273.287720
 11
519.994253
 21
-272.251100
  0
LINE
  8
TENKA
  6
PHANTOM2
 10
519.994253
 20
-272.251100
 11
519.875736
 21
-272.118967
  0
LINE
  8
TENKA
  6
PHANTOM2
 10
519.875736
 20
-272.118967
 11
519.756849
 21
-271.987674
  0
LINE
  8
TENKA
  6
PHANTOM2
 10
519.756849
 20
-271.987674
 11
519.637594
 21
-271.857222
  0
LINE
  8
TENKA
  6
PHANTOM2
 10
519.637594
 20
-271.857222
 11
519.517970
 21
-271.727612
  0
LINE
  8
TENKA
  6
PHANTOM2
 10
519.517970
 20
-271.727612
 11
519.397977
 21
-271.598846
  0
LINE
  8
TENKA
  6
PHANTOM2
 10
519.397977
 20
-271.598846
 11
519.277614
 21
-271.470925
  0
LINE
  8
TENKA
  6
PHANTOM2
 10
519.277614
 20
-271.470925
 11
519.115046
 21
-271.298050
  0
LINE
  8
TENKA
  6
PHANTOM2
 10
519.115046
 20
-271.298050
 11
518.996755
 21
-271.169378
  0
LINE
  8
TENKA
  6
PHANTOM2
 10
518.996755
 20
-271.169378
 11
518.922743
 21
-271.083981
  0
LINE
  8
TENKA
  6
PHANTOM2
 10
518.922743
 20
-271.083981
 11
518.893008
 21
-271.041242
  0
LINE
  8
TENKA
  6
PHANTOM2
 10
518.893008
 20
-271.041242
 11
518.896121
 21
-270.918597
  0
LINE
  8
TENKA
  6
PHANTOM2
 10
518.896121
 20
-270.918597
 11
518.979987
 21
-270.762544
  0
LINE
  8
TENKA
  6
PHANTOM2
 10
518.979987
 20
-270.762544
 11
519.144608
 21
-270.574029
  0
LINE
  8
TENKA
  6
PHANTOM2
 10
519.144608
 20
-270.574029
 11
519.292566
 21
-270.419718
  0
LINE
  8
TENKA
  6
PHANTOM2
 10
519.292566
 20
-270.419718
 11
519.399925
 21
-270.291824
  0
LINE
  8
TENKA
  6
PHANTOM2
 10
519.399925
 20
-270.291824
 11
519.466686
 21
-270.189748
  0
LINE
  8
TENKA
  6
PHANTOM2
 10
519.466686
 20
-270.189748
 11
519.492847
 21
-270.113008
  0
LINE
  8
TENKA
  6
PHANTOM2
 10
519.492847
 20
-270.113008
 11
519.347354
 21
-269.898097
  0
LINE
  8
TENKA
  6
PHANTOM2
 10
519.347354
 20
-269.898097
 11
518.866821
 21
-269.734501
  0
LINE
  8
TENKA
  6
PHANTOM2
 10
518.866821
 20
-269.734501
 11
518.445202
 21
-269.583827
  0
LINE
  8
TENKA
  6
PHANTOM2
 10
518.445202
 20
-269.583827
 11
518.398336
 21
-269.393090
  0
LINE
  8
TENKA
  6
PHANTOM2
 10
518.398336
 20
-269.393090
 11
518.580897
 21
-269.240890
  0
LINE
  8
TENKA
  6
PHANTOM2
 10
518.580897
 20
-269.240890
 11
518.970218
 21
-269.022909
  0
LINE
  8
TENKA
  6
PHANTOM2
 10
518.970218
 20
-269.022909
 11
519.290496
 21
-268.830955
  0
LINE
  8
TENKA
  6
PHANTOM2
 10
519.290496
 20
-268.830955
 11
519.360134
 21
-268.758255
  0
LINE
  8
TENKA
  6
PHANTOM2
 10
519.360134
 20
-268.758255
 11
519.372328
 21
-268.727605
  0
LINE
  8
TENKA
  6
PHANTOM2
 10
519.372328
 20
-268.727605
 11
519.372768
 21
-268.713694
  0
LINE
  8
TENKA
  6
PHANTOM2
 10
519.372768
 20
-268.713694
 11
519.209531
 21
-268.578921
  0
LINE
  8
TENKA
  6
PHANTOM2
 10
519.209531
 20
-268.578921
 11
519.008983
 21
-268.431392
  0
LINE
  8
TENKA
  6
PHANTOM2
 10
519.008983
 20
-268.431392
 11
518.633133
 21
-267.972114
  0
LINE
  8
TENKA
  6
PHANTOM2
 10
518.633133
 20
-267.972114
 11
518.507838
 21
-267.424324
  0
LINE
  8
TENKA
  6
PHANTOM2
 10
518.507838
 20
-267.424324
 11
518.507838
 21
-262.361129
  0
LINE
  8
TENKA
  6
PHANTOM2
 10
558.507838
 20
-450.167234
 11
588.507838
 21
-450.167234
  0
LINE
  8
TENKA
  6
PHANTOM2
 10
558.507838
 20
-424.555024
 11
588.507838
 21
-424.555024
  0
LINE
  8
TENKA
  6
PHANTOM2
 10
523.507838
 20
-597.241551
 11
523.507838
 21
-572.361129
  0
ARC
  8
TENKA
  6
PHANTOM2
 10
523.732917
 20
-567.466604
 40
29.775798
 50
269.566890
 51
359.560240
  0
ARC
  8
TENKA
  6
PHANTOM2
 10
523.732917
 20
-307.255653
 40
29.775798
 50
0.439760
 51
90.433110
  0
LINE
  8
TENKA
  6
PHANTOM2
 10
523.507838
 20
-302.361129
 11
523.507838
 21
-277.480706
  0
LINE
  8
TENKA
  6
PHANTOM2
 10
277.438039
 20
-297.712774
 11
277.438039
 21
-577.009484
  0
LINE
  8
TENKA
  6
PHANTOM2
 10
296.507838
 20
-572.361129
 11
296.507838
 21
-571.861129
  0
LINE
  8
TENKA
  6
PHANTOM2
 10
522.507838
 20
-572.361129
 11
522.507838
 21
-571.861129
  0
LINE
  8
TENKA
  6
PHANTOM2
 10
291.507838
 20
-567.361129
 11
292.007838
 21
-567.361129
  0
LINE
  8
TENKA
  6
PHANTOM2
 10
291.507838
 20
-493.861129
 11
292.007838
 21
-493.861129
  0
LINE
  8
TENKA
  6
PHANTOM2
 10
552.507838
 20
-542.361129
 11
552.007838
 21
-542.361129
  0
LINE
  8
TENKA
  6
PHANTOM2
 10
292.007838
 20
-380.861129
 11
291.507838
 21
-380.861129
  0
LINE
  8
TENKA
  6
PHANTOM2
 10
552.007838
 20
-332.361129
 11
552.507838
 21
-332.361129
  0
LINE
  8
TENKA
  6
PHANTOM2
 10
292.007838
 20
-307.361129
 11
291.507838
 21
-307.361129
  0
LINE
  8
TENKA
  6
PHANTOM2
 10
522.507838
 20
-302.861129
 11
522.507838
 21
-302.361129
  0
LINE
  8
TENKA
  6
PHANTOM2
 10
296.507838
 20
-302.861129
 11
296.507838
 21
-302.361129
  0
CIRCLE
  8
TENKA
  6
PHANTOM2
 10
420.507838
 20
-552.361129
 40
5.500000
  0
CIRCLE
  8
TENKA
  6
PHANTOM2
 10
533.507838
 20
-552.361129
 40
5.500000
  0
CIRCLE
  8
TENKA
  6
PHANTOM2
 10
302.507838
 20
-552.361129
 40
5.500000
  0
CIRCLE
  8
TENKA
  6
PHANTOM2
 10
297.507838
 20
-437.361129
 40
5.500000
  0
CIRCLE
  8
TENKA
  6
PHANTOM2
 10
543.507838
 20
-437.361129
 40
5.500000
  0
CIRCLE
  8
TENKA
  6
PHANTOM2
 10
302.507838
 20
-322.361129
 40
5.500000
  0
CIRCLE
  8
TENKA
  6
PHANTOM2
 10
420.507838
 20
-322.361129
 40
5.500000
  0
CIRCLE
  8
TENKA
  6
PHANTOM2
 10
533.507838
 20
-322.361129
 40
5.500000
  0
CIRCLE
  8
TENKA
  6
PHANTOM2
 10
516.507838
 20
-372.361129
 40
9.750000
  0
ARC
  8
TENKA
  6
PHANTOM2
 10
380.507838
 20
-437.361129
 40
12.719415
 50
304.428325
 51
55.571675
  0
ARC
  8
TENKA
  6
PHANTOM2
 10
380.507838
 20
-437.361129
 40
14.718196
 50
297.366034
 51
62.633966
  0
ARC
  8
TENKA
  6
PHANTOM2
 10
380.507838
 20
-437.361129
 40
14.718196
 50
117.366034
 51
242.633966
  0
ARC
  8
TENKA
  6
PHANTOM2
 10
380.507838
 20
-437.361129
 40
12.719415
 50
124.428325
 51
235.571675
  0
LINE
  8
TENKA
  6
PHANTOM2
 10
373.316600
 20
-447.852536
 11
373.268128
 21
-448.640612
  0
LINE
  8
TENKA
  6
PHANTOM2
 10
373.268128
 20
-448.640612
 11
373.256103
 21
-449.344244
  0
LINE
  8
TENKA
  6
PHANTOM2
 10
373.256103
 20
-449.344244
 11
373.365446
 21
-449.915723
  0
LINE
  8
TENKA
  6
PHANTOM2
 10
373.365446
 20
-449.915723
 11
373.603663
 21
-450.319790
  0
LINE
  8
TENKA
  6
PHANTOM2
 10
373.603663
 20
-450.319790
 11
373.742274
 21
-450.432183
  0
ARC
  8
TENKA
  6
PHANTOM2
 10
384.888016
 20
-426.008637
 40
2.939986
 50
342.969104
 51
35.771053
  0
LINE
  8
TENKA
  6
PHANTOM2
 10
387.273401
 20
-450.432183
 11
387.558816
 21
-450.118677
  0
LINE
  8
TENKA
  6
PHANTOM2
 10
387.558816
 20
-450.118677
 11
387.729699
 21
-449.604874
  0
LINE
  8
TENKA
  6
PHANTOM2
 10
387.729699
 20
-449.604874
 11
387.764130
 21
-448.948454
  0
LINE
  8
TENKA
  6
PHANTOM2
 10
387.764130
 20
-448.948454
 11
387.715805
 21
-448.208410
  0
LINE
  8
TENKA
  6
PHANTOM2
 10
387.715805
 20
-448.208410
 11
387.699075
 21
-447.852536
  0
ARC
  8
TENKA
  6
PHANTOM2
 10
375.774330
 20
-425.950333
 40
2.624064
 50
140.750008
 51
200.509835
  0
LINE
  8
TENKA
  6
PHANTOM2
 10
387.699075
 20
-426.869722
 11
386.507838
 21
-426.521524
  0
LINE
  8
TENKA
  6
PHANTOM2
 10
387.699075
 20
-447.852536
 11
386.507838
 21
-448.200733
  0
LINE
  8
TENKA
  6
PHANTOM2
 10
386.507838
 20
-444.485982
 11
386.545961
 21
-444.581018
  0
LINE
  8
TENKA
  6
PHANTOM2
 10
386.545961
 20
-444.581018
 11
387.699075
 21
-447.852536
  0
LINE
  8
TENKA
  6
PHANTOM2
 10
387.699075
 20
-426.869722
 11
386.673609
 21
-429.818359
  0
LINE
  8
TENKA
  6
PHANTOM2
 10
386.673609
 20
-429.818359
 11
386.507838
 21
-430.233061
  0
LINE
  8
TENKA
  6
PHANTOM2
 10
374.507838
 20
-426.521524
 11
373.316600
 21
-426.869722
  0
LINE
  8
TENKA
  6
PHANTOM2
 10
374.507838
 20
-430.235590
 11
373.316600
 21
-426.869722
  0
LINE
  8
TENKA
  6
PHANTOM2
 10
373.316600
 20
-447.852536
 11
373.771421
 21
-446.437668
  0
LINE
  8
TENKA
  6
PHANTOM2
 10
373.771421
 20
-446.437668
 11
374.507838
 21
-444.564110
  0
LINE
  8
TENKA
  6
PHANTOM2
 10
374.507838
 20
-448.200733
 11
373.316600
 21
-447.852536
  0
LINE
  8
OBRYS
 10
223.507838
 20
-503.361129
 11
223.507838
 21
-371.361129
  0
LINE
  8
OBRYS
 10
213.507838
 20
-559.905940
 11
213.507838
 21
-314.816318
  0
LINE
  8
OBRYS
 10
198.507838
 20
-562.361129
 11
198.507838
 21
-312.361129
  0
LINE
  8
OBRYS
 10
311.007838
 20
-259.861129
 11
330.007837
 21
-259.861129
  0
ARC
  8
OBRYS
 10
555.941164
 20
-562.361129
 40
11.969777
 50
335.458648
 51
24.541352
  0
ARC
  8
OBRYS
 10
246.074511
 20
-562.361129
 40
11.969777
 50
155.458648
 51
204.541352
  0
ARC
  8
OBRYS
 10
555.941164
 20
-312.361129
 40
11.969777
 50
335.458648
 51
24.541352
  0
ARC
  8
OBRYS
 10
246.074511
 20
-312.361129
 40
11.969777
 50
155.458648
 51
204.541352
  0
ARC
  8
OBRYS
 10
578.507838
 20
-592.447542
 40
5.000000
 50
285.000000
 51
360.000000
  0
ARC
  8
OBRYS
 10
223.507838
 20
-588.696253
 40
5.000000
 50
180.000000
 51
255.000000
  0
LINE
  8
OBRYS
 10
218.507838
 20
-588.696253
 11
218.507838
 21
-534.604823
  0
LINE
  8
OBRYS
 10
583.507838
 20
-547.763127
 11
583.507838
 21
-592.447542
  0
ARC
  8
OBRYS
 10
223.507838
 20
-534.604823
 40
5.000000
 50
100.000000
 51
180.000000
  0
LINE
  8
OBRYS
 10
222.639597
 20
-529.680785
 11
253.408630
 21
-524.255374
  0
LINE
  8
OBRYS
 10
253.408630
 20
-350.466883
 11
222.639597
 21
-345.041473
  0
ARC
  8
OBRYS
 10
223.507838
 20
-340.117434
 40
5.000000
 50
180.000000
 51
260.000000
  0
LINE
  8
OBRYS
 10
583.507838
 20
-282.274715
 11
583.507838
 21
-326.959130
  0
LINE
  8
OBRYS
 10
218.507838
 20
-340.117434
 11
218.507838
 21
-286.026004
  0
ARC
  8
OBRYS
 10
223.507838
 20
-286.026004
 40
5.000000
 50
105.000000
 51
180.000000
  0
ARC
  8
OBRYS
 10
578.507838
 20
-282.274715
 40
5.000000
 50
0.000000
 51
75.000000
  0
LINE
  8
OBRYS
 10
522.849575
 20
-612.361129
 11
521.177024
 21
-612.361129
  0
ARC
  8
OBRYS
 10
522.849575
 20
-607.361129
 40
5.000000
 50
270.000000
 51
285.000000
  0
LINE
  8
OBRYS
 10
579.801933
 20
-597.277171
 11
524.143670
 21
-612.190758
  0
LINE
  8
OBRYS
 10
293.166100
 20
-262.361129
 11
294.838651
 21
-262.361129
  0
ARC
  8
OBRYS
 10
293.166100
 20
-267.361129
 40
5.000000
 50
90.000000
 51
105.000000
  0
LINE
  8
OBRYS
 10
222.213742
 20
-281.196375
 11
291.872005
 21
-262.531499
  0
LINE
  8
OBRYS
 10
294.838651
 20
-612.361129
 11
293.166100
 21
-612.361129
  0
LINE
  8
OBRYS
 10
291.872005
 20
-612.190758
 11
222.213742
 21
-593.525883
  0
ARC
  8
OBRYS
 10
293.166100
 20
-607.361129
 40
5.000000
 50
255.000000
 51
270.000000
  0
LINE
  8
OBRYS
 10
521.177024
 20
-262.361129
 11
522.849575
 21
-262.361129
  0
LINE
  8
OBRYS
 10
524.143670
 20
-262.531499
 11
579.801933
 21
-277.445086
  0
ARC
  8
OBRYS
 10
522.849575
 20
-267.361129
 40
5.000000
 50
75.000000
 51
90.000000
  0
LINE
  8
OBRYS
 10
521.177024
 20
-612.361129
 11
518.507838
 21
-612.361129
  0
LINE
  8
OBRYS
 10
294.838651
 20
-262.361129
 11
297.507838
 21
-262.361129
  0
LINE
  8
OBRYS
 10
297.507838
 20
-612.361129
 11
294.838651
 21
-612.361129
  0
LINE
  8
OBRYS
 10
518.507838
 20
-262.361129
 11
521.177024
 21
-262.361129
  0
LINE
  8
OBRYS
 10
468.007838
 20
-614.861129
 11
449.007839
 21
-614.861129
  0
LINE
  8
OBRYS
 10
471.007838
 20
-611.861129
 11
446.007838
 21
-611.861129
  0
ARC
  8
OBRYS
 10
518.507838
 20
-607.361129
 40
5.000000
 50
270.000000
 51
360.000000
  0
LINE
  8
OBRYS
 10
523.507838
 20
-603.257870
 11
523.507838
 21
-607.361129
  0
LINE
  8
OBRYS
 10
523.507838
 20
-267.361129
 11
523.507838
 21
-271.375539
  0
ARC
  8
OBRYS
 10
518.507838
 20
-267.361129
 40
5.000000
 50
0.000000
 51
90.000000
  0
LINE
  8
OBRYS
 10
520.832091
 20
-604.833197
 11
521.555249
 21
-604.636938
  0
LINE
  8
OBRYS
 10
716.007838
 20
-466.361129
 11
716.007838
 21
-408.361129
  0
LINE
  8
OBRYS
 10
715.007838
 20
-467.361129
 11
715.007838
 21
-407.361129
  0
ARC
  8
OBRYS
 10
702.007838
 20
-437.361129
 40
9.000000
 50
270.000000
 51
90.000000
  0
ARC
  8
OBRYS
 10
610.007838
 20
-437.361129
 40
9.000000
 50
90.000000
 51
270.000000
  0
LINE
  8
OBRYS
 10
610.007838
 20
-446.361129
 11
702.007838
 21
-446.361129
  0
LINE
  8
OBRYS
 10
702.007838
 20
-428.361129
 11
610.007838
 21
-428.361129
  0
LINE
  8
OBRYS
 10
596.007838
 20
-476.633188
 11
596.007838
 21
-398.089069
  0
LINE
  8
OBRYS
 10
594.007838
 20
-477.361129
 11
594.007838
 21
-397.361129
  0
LINE
  8
OBRYS
 10
268.507838
 20
-329.872339
 11
268.507838
 21
-313.872340
  0
LINE
  8
OBRYS
 10
268.507838
 20
-560.842221
 11
268.507838
 21
-544.842222
  0
LINE
  8
OBRYS
 10
588.507838
 20
-547.345823
 11
588.507838
 21
-547.763127
  0
LINE
  8
OBRYS
 10
588.507838
 20
-326.959130
 11
588.507838
 21
-327.376435
  0
LINE
  8
OBRYS
 10
223.507838
 20
-371.361129
 11
223.507838
 21
-503.361129
  0
LINE
  8
OBRYS
 10
588.507838
 20
-500.794711
 11
588.507838
 21
-506.431890
  0
LINE
  8
OBRYS
 10
588.507838
 20
-368.290367
 11
588.507838
 21
-373.927546
  0
LINE
  8
OBRYS
 10
588.507838
 20
-533.916985
 11
588.507838
 21
-547.345823
  0
LINE
  8
OBRYS
 10
588.507838
 20
-327.376435
 11
588.507838
 21
-340.805272
  0
LINE
  8
OBRYS
 10
588.507838
 20
-506.431890
 11
588.507838
 21
-527.780733
  0
LINE
  8
OBRYS
 10
588.507838
 20
-346.941524
 11
588.507838
 21
-368.290367
  0
LINE
  8
OBRYS
 10
588.507838
 20
-527.780733
 11
588.507838
 21
-533.916985
  0
LINE
  8
OBRYS
 10
588.507838
 20
-340.805272
 11
588.507838
 21
-346.941524
  0
LINE
  8
OBRYS
 10
592.007838
 20
-357.361129
 11
592.007838
 21
-517.361129
  0
LINE
  8
OBRYS
 10
588.507838
 20
-460.935706
 11
588.507838
 21
-500.794711
  0
LINE
  8
OBRYS
 10
588.507838
 20
-373.927546
 11
588.507838
 21
-413.786551
  0
LINE
  8
OBRYS
 10
588.507838
 20
-457.264432
 11
588.507838
 21
-460.935706
  0
LINE
  8
OBRYS
 10
588.507838
 20
-413.786551
 11
588.507838
 21
-417.457826
  0
LINE
  8
OBRYS
 10
268.507838
 20
-493.196558
 11
268.507838
 21
-477.196559
  0
LINE
  8
OBRYS
 10
268.507838
 20
-397.525700
 11
268.507838
 21
-381.525701
  0
LINE
  8
OBRYS
 10
588.507838
 20
-455.148207
 11
588.507838
 21
-457.264432
  0
LINE
  8
OBRYS
 10
588.507838
 20
-417.457826
 11
588.507838
 21
-419.574050
  0
LINE
  8
OBRYS
 10
292.507838
 20
-607.361129
 11
292.507838
 21
-570.361129
  0
ARC
  8
OBRYS
 10
297.507838
 20
-607.361129
 40
5.000000
 50
180.000000
 51
270.000000
  0
LINE
  8
OBRYS
 10
588.507838
 20
-450.167234
 11
588.507838
 21
-455.148207
  0
LINE
  8
OBRYS
 10
588.507838
 20
-419.574050
 11
588.507838
 21
-424.555024
  0
ARC
  8
OBRYS
 10
297.507838
 20
-267.361129
 40
5.000000
 50
90.000000
 51
180.000000
  0
LINE
  8
OBRYS
 10
292.507838
 20
-304.361129
 11
292.507838
 21
-267.361129
  0
LINE
  8
OBRYS
 10
469.007838
 20
-612.361129
 11
518.507838
 21
-612.361129
  0
LINE
  8
OBRYS
 10
297.507838
 20
-612.361129
 11
448.007838
 21
-612.361129
  0
LINE
  8
OBRYS
 10
448.007838
 20
-612.064018
 11
447.307048
 21
-612.047934
  0
LINE
  8
OBRYS
 10
447.307048
 20
-612.047934
 11
445.790601
 21
-611.995328
  0
LINE
  8
OBRYS
 10
445.790601
 20
-611.995328
 11
444.637347
 21
-611.931947
  0
LINE
  8
OBRYS
 10
444.637347
 20
-611.931947
 11
443.874921
 21
-611.858498
  0
LINE
  8
OBRYS
 10
443.874921
 20
-611.858498
 11
443.530422
 21
-611.775916
  0
LINE
  8
OBRYS
 10
443.530422
 20
-611.775916
 11
443.608007
 21
-611.686332
  0
LINE
  8
OBRYS
 10
443.608007
 20
-611.686332
 11
444.111701
 21
-611.592165
  0
LINE
  8
OBRYS
 10
444.111701
 20
-611.592165
 11
445.021441
 21
-611.496874
  0
LINE
  8
OBRYS
 10
445.021441
 20
-611.496874
 11
446.317553
 21
-611.404145
  0
LINE
  8
OBRYS
 10
446.317553
 20
-611.404145
 11
447.957951
 21
-611.318029
  0
LINE
  8
OBRYS
 10
447.957951
 20
-611.318029
 11
449.900195
 21
-611.242680
  0
LINE
  8
OBRYS
 10
449.900195
 20
-611.242680
 11
452.085753
 21
-611.181605
  0
LINE
  8
OBRYS
 10
452.085753
 20
-611.181605
 11
454.453265
 21
-611.138239
  0
LINE
  8
OBRYS
 10
454.453265
 20
-611.138239
 11
456.935330
 21
-611.114481
  0
LINE
  8
OBRYS
 10
456.935330
 20
-611.114481
 11
459.459800
 21
-611.111958
  0
LINE
  8
OBRYS
 10
459.459800
 20
-611.111958
 11
461.957421
 21
-611.130393
  0
LINE
  8
OBRYS
 10
461.957421
 20
-611.130393
 11
464.355561
 21
-611.169146
  0
LINE
  8
OBRYS
 10
464.355561
 20
-611.169146
 11
466.589023
 21
-611.225841
  0
LINE
  8
OBRYS
 10
466.589023
 20
-611.225841
 11
468.593053
 21
-611.297881
  0
LINE
  8
OBRYS
 10
468.593053
 20
-611.297881
 11
470.313133
 21
-611.381444
  0
LINE
  8
OBRYS
 10
470.313133
 20
-611.381444
 11
471.697716
 21
-611.472807
  0
LINE
  8
OBRYS
 10
471.697716
 20
-611.472807
 11
472.710528
 21
-611.567786
  0
LINE
  8
OBRYS
 10
472.710528
 20
-611.567786
 11
473.317792
 21
-611.662559
  0
LINE
  8
OBRYS
 10
473.317792
 20
-611.662559
 11
473.507077
 21
-611.753720
  0
LINE
  8
OBRYS
 10
473.507077
 20
-611.753720
 11
473.266990
 21
-611.838293
  0
LINE
  8
OBRYS
 10
473.266990
 20
-611.838293
 11
472.610143
 21
-611.914360
  0
LINE
  8
OBRYS
 10
472.610143
 20
-611.914360
 11
471.549945
 21
-611.980330
  0
LINE
  8
OBRYS
 10
471.549945
 20
-611.980330
 11
470.121598
 21
-612.035777
  0
LINE
  8
OBRYS
 10
470.121598
 20
-612.035777
 11
469.007838
 21
-612.064024
  0
LINE
  8
OBRYS
 10
522.554369
 20
-572.361129
 11
523.507838
 21
-572.361129
  0
LINE
  8
OBRYS
 10
297.507838
 20
-262.361129
 11
518.507838
 21
-262.361129
  0
LINE
  8
OBRYS
 10
522.554369
 20
-302.361129
 11
523.507838
 21
-302.361129
  0
LINE
  8
OBRYS
 10
553.507838
 20
-458.827488
 11
553.507838
 21
-541.069889
  0
LINE
  8
OBRYS
 10
553.507838
 20
-458.827488
 11
553.954625
 21
-456.327488
  0
LINE
  8
OBRYS
 10
553.954625
 20
-456.327488
 11
554.672117
 21
-454.765035
  0
LINE
  8
OBRYS
 10
554.672117
 20
-454.765035
 11
555.649866
 21
-453.294271
  0
LINE
  8
OBRYS
 10
555.649866
 20
-453.294271
 11
558.497838
 21
-450.177234
  0
LINE
  8
OBRYS
 10
558.497838
 20
-450.177234
 11
558.507838
 21
-450.167234
  0
LINE
  8
OBRYS
 10
588.507838
 20
-424.555024
 11
588.507838
 21
-450.167234
  0
LINE
  8
OBRYS
 10
558.507838
 20
-424.555024
 11
558.497838
 21
-424.545024
  0
LINE
  8
OBRYS
 10
558.497838
 20
-424.545024
 11
555.649866
 21
-421.427986
  0
LINE
  8
OBRYS
 10
555.649866
 20
-421.427986
 11
554.693230
 21
-419.994359
  0
LINE
  8
OBRYS
 10
554.693230
 20
-419.994359
 11
553.954625
 21
-418.394770
  0
LINE
  8
OBRYS
 10
553.954625
 20
-418.394770
 11
553.507838
 21
-415.894770
  0
LINE
  8
OBRYS
 10
553.507838
 20
-333.652368
 11
553.507838
 21
-415.894770
  0
LINE
  8
OBRYS
 10
524.651194
 20
-572.242591
 11
529.475161
 21
-571.742948
  0
LINE
  8
OBRYS
 10
529.475161
 20
-571.742948
 11
535.201216
 21
-569.889158
  0
LINE
  8
OBRYS
 10
535.201216
 20
-569.889158
 11
540.403441
 21
-566.939939
  0
LINE
  8
OBRYS
 10
540.403441
 20
-566.939939
 11
544.940814
 21
-562.973177
  0
LINE
  8
OBRYS
 10
544.940814
 20
-562.973177
 11
548.598923
 21
-558.243301
  0
LINE
  8
OBRYS
 10
548.598923
 20
-558.243301
 11
551.301620
 21
-552.857584
  0
LINE
  8
OBRYS
 10
551.301620
 20
-552.857584
 11
552.956193
 21
-547.078179
  0
LINE
  8
OBRYS
 10
552.956193
 20
-547.078179
 11
553.507838
 21
-541.069889
  0
LINE
  8
OBRYS
 10
523.507838
 20
-572.361014
 11
523.894279
 21
-572.320989
  0
LINE
  8
OBRYS
 10
553.507838
 20
-541.069889
 11
553.507838
 21
-567.695139
  0
LINE
  8
OBRYS
 10
553.507838
 20
-333.652368
 11
552.958576
 21
-327.657575
  0
LINE
  8
OBRYS
 10
552.958576
 20
-327.657575
 11
551.311151
 21
-321.889179
  0
LINE
  8
OBRYS
 10
551.311151
 20
-321.889179
 11
548.612343
 21
-316.500306
  0
LINE
  8
OBRYS
 10
548.612343
 20
-316.500306
 11
544.955994
 21
-311.765250
  0
LINE
  8
OBRYS
 10
544.955994
 20
-311.765250
 11
540.423584
 21
-307.796643
  0
LINE
  8
OBRYS
 10
540.423584
 20
-307.796643
 11
537.907323
 21
-306.193069
  0
LINE
  8
OBRYS
 10
537.907323
 20
-306.193069
 11
535.224358
 21
-304.843316
  0
LINE
  8
OBRYS
 10
535.224358
 20
-304.843316
 11
529.487987
 21
-302.981864
  0
LINE
  8
OBRYS
 10
529.487987
 20
-302.981864
 11
523.507838
 21
-302.361243
  0
LINE
  8
OBRYS
 10
553.507838
 20
-307.027119
 11
553.507838
 21
-333.652368
  0
LINE
  8
OBRYS
 10
275.507838
 20
-575.010702
 11
275.507838
 21
-299.711555
  0
LINE
  8
OBRYS
 10
287.507838
 20
-577.361129
 11
287.507838
 21
-489.861129
  0
LINE
  8
OBRYS
 10
287.507838
 20
-384.861129
 11
287.507838
 21
-297.361129
  0
ARC
  8
OBRYS
 10
296.507838
 20
-567.361129
 40
5.000000
 50
180.000000
 51
270.000000
  0
LINE
  8
OBRYS
 10
522.507838
 20
-572.361129
 11
296.507838
 21
-572.361129
  0
ARC
  8
OBRYS
 10
522.507838
 20
-542.361129
 40
30.000000
 50
270.000000
 51
360.000000
  0
LINE
  8
OBRYS
 10
291.507838
 20
-567.361129
 11
291.507838
 21
-493.861129
  0
ARC
  8
OBRYS
 10
287.507838
 20
-493.861129
 40
4.000000
 50
0.000000
 51
90.000000
  0
LINE
  8
OBRYS
 10
287.507838
 20
-489.861129
 11
287.507838
 21
-384.861129
  0
LINE
  8
OBRYS
 10
287.507838
 20
-489.861129
 11
288.007838
 21
-489.388993
  0
ARC
  8
OBRYS
 10
287.507838
 20
-380.861129
 40
4.000000
 50
270.000000
 51
360.000000
  0
LINE
  8
OBRYS
 10
288.007838
 20
-385.333265
 11
287.507838
 21
-384.861129
  0
LINE
  8
OBRYS
 10
552.507838
 20
-332.361129
 11
552.507838
 21
-542.361129
  0
ARC
  8
OBRYS
 10
287.507838
 20
-380.861129
 40
4.500000
 50
276.379370
 51
360.000000
  0
LINE
  8
OBRYS
 10
288.007838
 20
-385.333265
 11
288.007838
 21
-489.388993
  0
ARC
  8
OBRYS
 10
287.507838
 20
-493.861129
 40
4.500000
 50
0.000000
 51
83.620630
  0
LINE
  8
OBRYS
 10
292.007838
 20
-493.861129
 11
292.007838
 21
-567.361129
  0
ARC
  8
OBRYS
 10
296.507838
 20
-567.361129
 40
4.500000
 50
180.000000
 51
270.000000
  0
LINE
  8
OBRYS
 10
296.507838
 20
-571.861129
 11
522.507838
 21
-571.861129
  0
ARC
  8
OBRYS
 10
522.507838
 20
-542.361129
 40
29.500000
 50
270.000000
 51
360.000000
  0
LINE
  8
OBRYS
 10
552.007838
 20
-542.361129
 11
552.007838
 21
-332.361129
  0
LINE
  8
OBRYS
 10
291.507838
 20
-380.861129
 11
291.507838
 21
-307.361129
  0
LINE
  8
OBRYS
 10
292.007838
 20
-307.361129
 11
292.007838
 21
-380.861129
  0
ARC
  8
OBRYS
 10
522.507838
 20
-332.361129
 40
30.000000
 50
0.000000
 51
90.000000
  0
ARC
  8
OBRYS
 10
522.507838
 20
-332.361129
 40
29.500000
 50
0.000000
 51
90.000000
  0
ARC
  8
OBRYS
 10
296.507838
 20
-307.361129
 40
5.000000
 50
90.000000
 51
180.000000
  0
ARC
  8
OBRYS
 10
296.507838
 20
-307.361129
 40
4.500000
 50
90.000000
 51
180.000000
  0
LINE
  8
OBRYS
 10
296.507838
 20
-302.361129
 11
522.507838
 21
-302.361129
  0
LINE
  8
OBRYS
 10
522.507838
 20
-302.861129
 11
296.507838
 21
-302.861129
  0
CIRCLE
  8
OBRYS
 10
516.507838
 20
-372.361129
 40
12.500000
  0
CIRCLE
  8
OBRYS
 10
420.507838
 20
-552.361129
 40
6.500000
  0
LINE
  8
OBRYS
 10
421.951213
 20
-554.861129
 11
423.394589
 21
-552.361129
  0
LINE
  8
OBRYS
 10
419.064462
 20
-554.861129
 11
421.951213
 21
-554.861129
  0
LINE
  8
OBRYS
 10
417.621086
 20
-552.361129
 11
419.064462
 21
-554.861129
  0
LINE
  8
OBRYS
 10
419.064462
 20
-549.861129
 11
417.621086
 21
-552.361129
  0
LINE
  8
OBRYS
 10
421.951213
 20
-549.861129
 11
419.064462
 21
-549.861129
  0
LINE
  8
OBRYS
 10
423.394589
 20
-552.361129
 11
421.951213
 21
-549.861129
  0
LINE
  8
OBRYS
 10
532.064462
 20
-549.861129
 11
530.621086
 21
-552.361129
  0
LINE
  8
OBRYS
 10
534.951213
 20
-549.861129
 11
532.064462
 21
-549.861129
  0
LINE
  8
OBRYS
 10
536.394589
 20
-552.361129
 11
534.951213
 21
-549.861129
  0
LINE
  8
OBRYS
 10
534.951213
 20
-554.861129
 11
536.394589
 21
-552.361129
  0
LINE
  8
OBRYS
 10
532.064462
 20
-554.861129
 11
534.951213
 21
-554.861129
  0
LINE
  8
OBRYS
 10
530.621086
 20
-552.361129
 11
532.064462
 21
-554.861129
  0
CIRCLE
  8
OBRYS
 10
533.507838
 20
-552.361129
 40
6.500000
  0
LINE
  8
OBRYS
 10
303.951213
 20
-554.861129
 11
305.394589
 21
-552.361129
  0
LINE
  8
OBRYS
 10
301.064462
 20
-554.861129
 11
303.951213
 21
-554.861129
  0
LINE
  8
OBRYS
 10
299.621086
 20
-552.361129
 11
301.064462
 21
-554.861129
  0
LINE
  8
OBRYS
 10
301.064462
 20
-549.861129
 11
299.621086
 21
-552.361129
  0
LINE
  8
OBRYS
 10
303.951213
 20
-549.861129
 11
301.064462
 21
-549.861129
  0
LINE
  8
OBRYS
 10
305.394589
 20
-552.361129
 11
303.951213
 21
-549.861129
  0
CIRCLE
  8
OBRYS
 10
302.507838
 20
-552.361129
 40
6.500000
  0
CIRCLE
  8
OBRYS
 10
543.507838
 20
-437.361129
 40
6.500000
  0
CIRCLE
  8
OBRYS
 10
297.507838
 20
-437.361129
 40
6.500000
  0
LINE
  8
OBRYS
 10
298.951213
 20
-439.861129
 11
300.394589
 21
-437.361129
  0
LINE
  8
OBRYS
 10
296.064462
 20
-439.861129
 11
298.951213
 21
-439.861129
  0
LINE
  8
OBRYS
 10
294.621086
 20
-437.361129
 11
296.064462
 21
-439.861129
  0
LINE
  8
OBRYS
 10
296.064462
 20
-434.861129
 11
294.621086
 21
-437.361129
  0
LINE
  8
OBRYS
 10
298.951213
 20
-434.861129
 11
296.064462
 21
-434.861129
  0
LINE
  8
OBRYS
 10
300.394589
 20
-437.361129
 11
298.951213
 21
-434.861129
  0
LINE
  8
OBRYS
 10
544.951213
 20
-439.861129
 11
546.394589
 21
-437.361129
  0
LINE
  8
OBRYS
 10
542.064462
 20
-439.861129
 11
544.951213
 21
-439.861129
  0
LINE
  8
OBRYS
 10
540.621086
 20
-437.361129
 11
542.064462
 21
-439.861129
  0
LINE
  8
OBRYS
 10
542.064462
 20
-434.861129
 11
540.621086
 21
-437.361129
  0
LINE
  8
OBRYS
 10
544.951213
 20
-434.861129
 11
542.064462
 21
-434.861129
  0
LINE
  8
OBRYS
 10
546.394589
 20
-437.361129
 11
544.951213
 21
-434.861129
  0
LINE
  8
OBRYS
 10
303.951213
 20
-324.861129
 11
305.394589
 21
-322.361129
  0
LINE
  8
OBRYS
 10
301.064462
 20
-324.861129
 11
303.951213
 21
-324.861129
  0
LINE
  8
OBRYS
 10
299.621086
 20
-322.361129
 11
301.064462
 21
-324.861129
  0
LINE
  8
OBRYS
 10
301.064462
 20
-319.861129
 11
299.621086
 21
-322.361129
  0
LINE
  8
OBRYS
 10
303.951213
 20
-319.861129
 11
301.064462
 21
-319.861129
  0
LINE
  8
OBRYS
 10
305.394589
 20
-322.361129
 11
303.951213
 21
-319.861129
  0
CIRCLE
  8
OBRYS
 10
533.507838
 20
-322.361129
 40
6.500000
  0
LINE
  8
OBRYS
 10
421.951213
 20
-324.861129
 11
423.394589
 21
-322.361129
  0
LINE
  8
OBRYS
 10
419.064462
 20
-324.861129
 11
421.951213
 21
-324.861129
  0
LINE
  8
OBRYS
 10
417.621086
 20
-322.361129
 11
419.064462
 21
-324.861129
  0
LINE
  8
OBRYS
 10
419.064462
 20
-319.861129
 11
417.621086
 21
-322.361129
  0
LINE
  8
OBRYS
 10
421.951213
 20
-319.861129
 11
419.064462
 21
-319.861129
  0
LINE
  8
OBRYS
 10
423.394589
 20
-322.361129
 11
421.951213
 21
-319.861129
  0
CIRCLE
  8
OBRYS
 10
302.507838
 20
-322.361129
 40
6.500000
  0
CIRCLE
  8
OBRYS
 10
420.507838
 20
-322.361129
 40
6.500000
  0
LINE
  8
OBRYS
 10
532.064462
 20
-319.861129
 11
530.621086
 21
-322.361129
  0
LINE
  8
OBRYS
 10
534.951213
 20
-319.861129
 11
532.064462
 21
-319.861129
  0
LINE
  8
OBRYS
 10
536.394589
 20
-322.361129
 11
534.951213
 21
-319.861129
  0
LINE
  8
OBRYS
 10
534.951213
 20
-324.861129
 11
536.394589
 21
-322.361129
  0
LINE
  8
OBRYS
 10
532.064462
 20
-324.861129
 11
534.951213
 21
-324.861129
  0
LINE
  8
OBRYS
 10
530.621086
 20
-322.361129
 11
532.064462
 21
-324.861129
  0
ARC
  8
OBRYS
 10
380.507838
 20
-437.361129
 40
15.000000
 50
293.578178
 51
66.421822
  0
ARC
  8
OBRYS
 10
380.507838
 20
-437.361129
 40
15.000000
 50
113.578178
 51
246.421822
  0
LINE
  8
OBRYS
 10
518.817239
 20
-376.361129
 11
521.126640
 21
-372.361129
  0
LINE
  8
OBRYS
 10
514.198437
 20
-376.361129
 11
518.817239
 21
-376.361129
  0
LINE
  8
OBRYS
 10
511.889035
 20
-372.361129
 11
514.198437
 21
-376.361129
  0
LINE
  8
OBRYS
 10
514.198437
 20
-368.361129
 11
511.889035
 21
-372.361129
  0
LINE
  8
OBRYS
 10
518.817239
 20
-368.361129
 11
514.198437
 21
-368.361129
  0
LINE
  8
OBRYS
 10
521.126640
 20
-372.361129
 11
518.817239
 21
-368.361129
  0
CIRCLE
  8
OBRYS
 10
516.507838
 20
-372.361129
 40
10.500000
  0
LINE
  8
OBRYS
 10
223.507838
 20
-371.361129
 11
216.403139
 21
-371.113027
  0
LINE
  8
OBRYS
 10
216.403139
 20
-503.609230
 11
223.507838
 21
-503.361129
  0
ARC
  8
OBRYS
 10
216.507838
 20
-368.114855
 40
3.000000
 50
180.000000
 51
268.000000
  0
ARC
  8
OBRYS
 10
216.507838
 20
-506.607403
 40
3.000000
 50
92.000000
 51
180.000000
  0
ARC
  8
OBRYS
 10
211.507838
 20
-314.816318
 40
2.000000
 50
0.000000
 51
88.000000
  0
ARC
  8
OBRYS
 10
211.507838
 20
-559.905940
 40
2.000000
 50
272.000000
 51
360.000000
  0
LINE
  8
OBRYS
 10
211.577637
 20
-312.817536
 11
198.507838
 21
-312.361129
  0
LINE
  8
OBRYS
 10
198.507838
 20
-562.361129
 11
211.577637
 21
-561.904721
  0
LINE
  8
OBRYS
 10
310.007838
 20
-260.861129
 11
310.007838
 21
-262.361129
  0
LINE
  8
OBRYS
 10
331.007838
 20
-262.361129
 11
331.007838
 21
-260.861129
  0
ARC
  8
OBRYS
 10
330.007838
 20
-260.861129
 40
1.000000
 50
0.000000
 51
90.000000
  0
ARC
  8
OBRYS
 10
311.007838
 20
-260.861129
 40
1.000000
 50
90.000000
 51
180.000000
  0
LINE
  8
OBRYS
 10
469.007838
 20
-613.861129
 11
469.007838
 21
-611.861129
  0
LINE
  8
OBRYS
 10
448.007838
 20
-611.861129
 11
448.007838
 21
-613.861129
  0
ARC
  8
OBRYS
 10
449.007838
 20
-613.861129
 40
1.000000
 50
180.000000
 51
270.000000
  0
ARC
  8
OBRYS
 10
468.007838
 20
-613.861129
 40
1.000000
 50
270.000000
 51
360.000000
  0
LINE
  8
OBRYS
 10
471.007838
 20
-611.861129
 11
471.007838
 21
-611.427285
  0
LINE
  8
OBRYS
 10
446.007838
 20
-611.426303
 11
446.007838
 21
-611.861129
  0
ARC
  8
OBRYS
 10
269.507838
 20
-329.880036
 40
1.000000
 50
180.000000
 51
270.000000
  0
LINE
  8
OBRYS
 10
269.507838
 20
-330.880036
 11
275.486698
 21
-330.880036
  0
LINE
  8
OBRYS
 10
269.507838
 20
-561.849918
 11
275.507838
 21
-561.849918
  0
ARC
  8
OBRYS
 10
269.507838
 20
-560.849918
 40
1.000000
 50
180.000000
 51
270.000000
  0
LINE
  8
OBRYS
 10
531.243178
 20
-597.120185
 11
531.233866
 21
-596.927223
  0
LINE
  8
OBRYS
 10
531.233866
 20
-596.927223
 11
531.548949
 21
-596.678452
  0
LINE
  8
OBRYS
 10
531.548949
 20
-596.678452
 11
532.243291
 21
-596.395171
  0
LINE
  8
OBRYS
 10
520.840341
 20
-604.864647
 11
521.789682
 21
-604.515466
  0
LINE
  8
OBRYS
 10
521.789682
 20
-604.515466
 11
522.212991
 21
-604.131344
  0
LINE
  8
OBRYS
 10
522.212991
 20
-604.131344
 11
522.571252
 21
-603.754699
  0
LINE
  8
OBRYS
 10
522.571252
 20
-603.754699
 11
522.859240
 21
-603.519934
  0
LINE
  8
OBRYS
 10
522.859240
 20
-603.519934
 11
523.197080
 21
-603.298207
  0
LINE
  8
OBRYS
 10
523.197080
 20
-603.298207
 11
523.489364
 21
-603.132650
  0
LINE
  8
OBRYS
 10
523.489364
 20
-603.132650
 11
523.795019
 21
-602.973692
  0
LINE
  8
OBRYS
 10
523.795019
 20
-602.973692
 11
524.489620
 21
-602.631163
  0
LINE
  8
OBRYS
 10
524.489620
 20
-602.631163
 11
525.124116
 21
-602.297762
  0
LINE
  8
OBRYS
 10
525.124116
 20
-602.297762
 11
525.573146
 21
-602.029236
  0
LINE
  8
OBRYS
 10
525.573146
 20
-602.029236
 11
525.987306
 21
-601.763701
  0
LINE
  8
OBRYS
 10
525.987306
 20
-601.763701
 11
526.423870
 21
-601.475931
  0
LINE
  8
OBRYS
 10
526.423870
 20
-601.475931
 11
526.826593
 21
-601.211188
  0
LINE
  8
OBRYS
 10
526.826593
 20
-601.211188
 11
527.191918
 21
-600.974228
  0
LINE
  8
OBRYS
 10
527.191918
 20
-600.974228
 11
527.519767
 21
-600.771592
  0
LINE
  8
OBRYS
 10
527.519767
 20
-600.771592
 11
527.947857
 21
-600.533222
  0
LINE
  8
OBRYS
 10
527.947857
 20
-600.533222
 11
528.319795
 21
-600.337528
  0
LINE
  8
OBRYS
 10
528.319795
 20
-600.337528
 11
529.395634
 21
-599.713933
  0
LINE
  8
OBRYS
 10
529.395634
 20
-599.713933
 11
530.648537
 21
-598.930784
  0
LINE
  8
OBRYS
 10
530.648537
 20
-598.930784
 11
532.154084
 21
-597.958264
  0
LINE
  8
OBRYS
 10
532.154084
 20
-597.958264
 11
533.552342
 21
-597.032249
  0
LINE
  8
OBRYS
 10
533.552342
 20
-597.032249
 11
535.029620
 21
-596.020742
  0
LINE
  8
OBRYS
 10
535.029620
 20
-596.020742
 11
535.782524
 21
-595.470805
  0
LINE
  8
OBRYS
 10
535.782524
 20
-595.470805
 11
536.320644
 21
-595.016322
  0
LINE
  8
OBRYS
 10
536.320644
 20
-595.016322
 11
536.551421
 21
-594.755614
  0
LINE
  8
OBRYS
 10
536.551421
 20
-594.755614
 11
536.516483
 21
-594.737111
  0
LINE
  8
OBRYS
 10
536.536546
 20
-280.008410
 11
536.547485
 21
-279.953016
  0
LINE
  8
OBRYS
 10
536.547485
 20
-279.953016
 11
536.304468
 21
-279.690838
  0
LINE
  8
OBRYS
 10
536.304468
 20
-279.690838
 11
535.356311
 21
-278.931819
  0
LINE
  8
OBRYS
 10
535.356311
 20
-278.931819
 11
534.193144
 21
-278.123802
  0
LINE
  8
OBRYS
 10
534.193144
 20
-278.123802
 11
533.055807
 21
-277.358382
  0
LINE
  8
OBRYS
 10
533.055807
 20
-277.358382
 11
531.279609
 21
-276.196152
  0
LINE
  8
OBRYS
 10
531.279609
 20
-276.196152
 11
529.594574
 21
-275.125262
  0
LINE
  8
OBRYS
 10
529.594574
 20
-275.125262
 11
528.036771
 21
-274.163575
  0
LINE
  8
OBRYS
 10
528.036771
 20
-274.163575
 11
527.208638
 21
-273.664217
  0
LINE
  8
OBRYS
 10
527.208638
 20
-273.664217
 11
526.075077
 21
-273.001444
  0
LINE
  8
OBRYS
 10
526.075077
 20
-273.001444
 11
524.535002
 21
-272.152028
  0
LINE
  8
OBRYS
 10
524.535002
 20
-272.152028
 11
523.788723
 21
-271.692270
  0
LINE
  8
OBRYS
 10
523.788723
 20
-271.692270
 11
523.193704
 21
-271.189737
  0
LINE
  8
OBRYS
 10
523.193704
 20
-271.189737
 11
522.661302
 21
-270.689162
  0
LINE
  8
OBRYS
 10
522.661302
 20
-270.689162
 11
521.994417
 21
-270.233297
  0
LINE
  8
OBRYS
 10
521.994417
 20
-270.233297
 11
520.840341
 21
-269.857610
  0
LINE
  8
OBRYS
 10
532.243291
 20
-278.327087
 11
531.591918
 21
-278.067586
  0
LINE
  8
OBRYS
 10
531.591918
 20
-278.067586
 11
531.269305
 21
-277.835310
  0
LINE
  8
OBRYS
 10
531.269305
 20
-277.835310
 11
531.220161
 21
-277.593272
  0
ARC
  8
OBRYS
 10
523.507838
 20
-567.695139
 40
30.000000
 50
286.894243
 51
359.263040
  0
ARC
  8
OBRYS
 10
523.507838
 20
-307.027119
 40
30.000000
 50
0.387897
 51
73.008197
  0
LINE
  8
OBRYS
 10
716.007838
 20
-408.361129
 11
715.007838
 21
-407.361129
  0
LINE
  8
OBRYS
 10
715.007838
 20
-467.361129
 11
716.007838
 21
-466.361129
  0
LINE
  8
OBRYS
 10
715.007838
 20
-407.361129
 11
596.007838
 21
-407.361129
  0
LINE
  8
OBRYS
 10
596.007838
 20
-467.361129
 11
715.007838
 21
-467.361129
  0
LINE
  8
OBRYS
 10
594.007838
 20
-397.361129
 11
592.007838
 21
-397.361129
  0
LINE
  8
OBRYS
 10
592.007838
 20
-477.361129
 11
594.007838
 21
-477.361129
  0
LINE
  8
OBRYS
 10
596.007838
 20
-398.089069
 11
594.007838
 21
-397.361129
  0
LINE
  8
OBRYS
 10
594.007838
 20
-477.361129
 11
596.007838
 21
-476.633188
  0
ARC
  8
OBRYS
 10
269.507838
 20
-313.872339
 40
1.000000
 50
90.000000
 51
180.000000
  0
ARC
  8
OBRYS
 10
269.507838
 20
-329.872339
 40
1.000000
 50
180.000000
 51
270.000000
  0
LINE
  8
OBRYS
 10
269.507838
 20
-330.872339
 11
275.507838
 21
-330.872339
  0
LINE
  8
OBRYS
 10
275.507838
 20
-312.872339
 11
269.507838
 21
-312.872339
  0
LINE
  8
OBRYS
 10
269.507838
 20
-561.842221
 11
275.507838
 21
-561.842221
  0
LINE
  8
OBRYS
 10
275.507838
 20
-543.842221
 11
269.507838
 21
-543.842221
  0
ARC
  8
OBRYS
 10
269.507838
 20
-544.842221
 40
1.000000
 50
90.000000
 51
180.000000
  0
ARC
  8
OBRYS
 10
269.507838
 20
-560.842221
 40
1.000000
 50
180.000000
 51
270.000000
  0
LINE
  8
OBRYS
 10
558.507838
 20
-547.763127
 11
588.507838
 21
-547.763127
  0
LINE
  8
OBRYS
 10
588.507838
 20
-326.959130
 11
558.507838
 21
-326.959130
  0
ARC
  8
OBRYS
 10
558.507838
 20
-552.763127
 40
5.000000
 50
90.000000
 51
180.000000
  0
ARC
  8
OBRYS
 10
558.507838
 20
-321.959130
 40
5.000000
 50
180.000000
 51
270.000000
  0
LINE
  8
OBRYS
 10
223.507838
 20
-503.361129
 11
227.415927
 21
-503.361129
  0
LINE
  8
OBRYS
 10
227.415927
 20
-371.361129
 11
223.507838
 21
-371.361129
  0
ARC
  8
OBRYS
 10
227.415927
 20
-506.361129
 40
3.000000
 50
50.000000
 51
90.000000
  0
ARC
  8
OBRYS
 10
227.415927
 20
-368.361129
 40
3.000000
 50
270.000000
 51
310.000000
  0
LINE
  8
OBRYS
 10
592.007838
 20
-357.361129
 11
588.507838
 21
-357.361129
  0
LINE
  8
OBRYS
 10
588.507838
 20
-517.361129
 11
592.007838
 21
-517.361129
  0
LINE
  8
OBRYS
 10
229.344290
 20
-504.062995
 11
274.436200
 21
-541.899601
  0
LINE
  8
OBRYS
 10
274.436200
 20
-332.822656
 11
229.344290
 21
-370.659262
  0
ARC
  8
OBRYS
 10
272.507838
 20
-330.524523
 40
3.000000
 50
310.000000
 51
353.194206
  0
ARC
  8
OBRYS
 10
272.507838
 20
-544.197734
 40
3.000000
 50
6.657764
 51
50.000000
  0
LINE
  8
OBRYS
 10
269.507838
 20
-494.196558
 11
275.507838
 21
-494.196558
  0
LINE
  8
OBRYS
 10
275.507838
 20
-476.196558
 11
269.507838
 21
-476.196558
  0
ARC
  8
OBRYS
 10
269.507838
 20
-477.196558
 40
1.000000
 50
90.000000
 51
180.000000
  0
ARC
  8
OBRYS
 10
269.507838
 20
-493.196558
 40
1.000000
 50
180.000000
 51
270.000000
  0
LINE
  8
OBRYS
 10
269.507838
 20
-398.525700
 11
275.507838
 21
-398.525700
  0
LINE
  8
OBRYS
 10
275.507838
 20
-380.525700
 11
269.507838
 21
-380.525700
  0
ARC
  8
OBRYS
 10
269.507838
 20
-381.525700
 40
1.000000
 50
90.000000
 51
180.000000
  0
ARC
  8
OBRYS
 10
269.507838
 20
-397.525700
 40
1.000000
 50
180.000000
 51
270.000000
  0
ARC
  8
OBRYS
 10
287.507838
 20
-582.361129
 40
5.000000
 50
0.000000
 51
90.000000
  0
ARC
  8
OBRYS
 10
287.507838
 20
-292.361129
 40
5.000000
 50
270.000000
 51
360.000000
  0
ARC
  8
OBRYS
 10
277.507838
 20
-299.711555
 40
2.000000
 50
92.000000
 51
180.000000
  0
ARC
  8
OBRYS
 10
277.507838
 20
-575.010702
 40
2.000000
 50
180.000000
 51
268.000000
  0
LINE
  8
OBRYS
 10
277.438039
 20
-577.009484
 11
287.507838
 21
-577.361129
  0
LINE
  8
OBRYS
 10
287.507838
 20
-297.361129
 11
277.438039
 21
-297.712774
  0
LINE
  8
OBRYS
 10
373.907322
 20
-450.553828
 11
374.053250
 21
-450.631135
  0
LINE
  8
OBRYS
 10
374.053250
 20
-450.631135
 11
374.371647
 21
-450.985494
  0
LINE
  8
OBRYS
 10
374.371647
 20
-450.985494
 11
374.490332
 21
-451.230992
  0
LINE
  8
OBRYS
 10
374.490332
 20
-451.230992
 11
374.510121
 21
-451.308193
  0
LINE
  8
OBRYS
 10
374.510121
 20
-451.308193
 11
374.510083
 21
-451.305693
  0
LINE
  8
OBRYS
 10
387.119567
 20
-424.174370
 11
386.962425
 21
-424.091123
  0
LINE
  8
OBRYS
 10
386.962425
 20
-424.091123
 11
386.644028
 21
-423.736763
  0
LINE
  8
OBRYS
 10
386.644028
 20
-423.736763
 11
386.525344
 21
-423.491265
  0
LINE
  8
OBRYS
 10
386.525344
 20
-423.491265
 11
386.505555
 21
-423.414064
  0
LINE
  8
OBRYS
 10
386.505555
 20
-423.414064
 11
386.505592
 21
-423.416564
  0
ARC
  8
OBRYS
 10
387.724776
 20
-451.643497
 40
1.264000
 50
112.261413
 51
164.446324
  0
ARC
  8
OBRYS
 10
373.290900
 20
-423.078760
 40
1.264000
 50
292.261413
 51
344.446324
  0
LINE
  8
OBRYS
 10
386.507838
 20
-458.361129
 11
386.507838
 21
-416.361129
  0
LINE
  8
OBRYS
 10
374.507838
 20
-416.361129
 11
374.507838
 21
-458.361129
  0
ARC
  8
OBRYS
 10
380.507838
 20
-458.361129
 40
6.000000
 50
180.000000
 51
360.000000
  0
ARC
  8
OBRYS
 10
380.507838
 20
-416.361129
 40
6.000000
 50
0.000000
 51
180.000000
  0
LINE
  8
TENKA
  6
PHANTOM2
 10
216.403139
 20
672.407012
 11
216.403139
 21
804.903216
  0
LINE
  8
TENKA
  6
PHANTOM2
 10
211.577637
 20
614.111521
 11
211.577637
 21
863.198707
  0
LINE
  8
TENKA
  6
PHANTOM2
 10
539.507838
 20
675.221532
 11
539.507838
 21
669.584352
  0
LINE
  8
TENKA
  6
PHANTOM2
 10
528.507838
 20
807.725876
 11
528.507838
 21
802.088696
  0
LINE
  8
TENKA
  6
PHANTOM2
 10
539.507838
 20
675.221532
 11
588.507838
 21
675.221532
  0
LINE
  8
TENKA
  6
PHANTOM2
 10
588.507838
 20
678.763592
 11
562.477683
 21
679.282497
  0
LINE
  8
TENKA
  6
PHANTOM2
 10
562.477683
 20
679.282497
 11
539.507838
 21
679.752339
  0
ARC
  8
TENKA
  6
PHANTOM2
 10
539.130413
 20
672.571587
 40
2.676687
 50
81.894042
 51
168.459667
  0
LINE
  8
TENKA
  6
PHANTOM2
 10
539.507838
 20
679.752339
 11
539.507838
 21
675.221532
  0
LINE
  8
TENKA
  6
PHANTOM2
 10
583.507838
 20
848.639808
 11
588.507838
 21
848.639808
  0
LINE
  8
TENKA
  6
PHANTOM2
 10
583.507838
 20
628.670420
 11
588.507838
 21
628.670420
  0
ARC
  8
TENKA
  6
PHANTOM2
 10
539.079091
 20
677.133813
 40
2.653394
 50
80.701138
 51
165.706372
  0
LINE
  8
TENKA
  6
PHANTOM2
 10
539.507838
 20
679.752339
 11
539.479832
 21
680.679252
  0
LINE
  8
TENKA
  6
PHANTOM2
 10
539.479832
 20
680.679252
 11
539.455480
 21
681.736405
  0
LINE
  8
TENKA
  6
PHANTOM2
 10
528.507838
 20
807.725876
 11
588.507838
 21
807.725876
  0
LINE
  8
TENKA
  6
PHANTOM2
 10
539.507838
 20
669.584352
 11
588.507838
 21
669.584352
  0
LINE
  8
TENKA
  6
PHANTOM2
 10
583.507838
 20
835.210970
 11
588.507838
 21
835.210970
  0
LINE
  8
TENKA
  6
PHANTOM2
 10
580.963344
 20
829.074718
 11
588.507838
 21
829.074718
  0
LINE
  8
TENKA
  6
PHANTOM2
 10
583.507838
 20
642.099257
 11
588.507838
 21
642.099257
  0
LINE
  8
TENKA
  6
PHANTOM2
 10
580.963344
 20
648.235509
 11
588.507838
 21
648.235509
  0
LINE
  8
TENKA
  6
PHANTOM2
 10
539.507838
 20
669.584352
 11
538.922567
 21
669.608714
  0
LINE
  8
TENKA
  6
PHANTOM2
 10
538.922567
 20
669.608714
 11
538.359787
 21
669.680862
  0
LINE
  8
TENKA
  6
PHANTOM2
 10
538.359787
 20
669.680862
 11
537.841127
 21
669.798024
  0
LINE
  8
TENKA
  6
PHANTOM2
 10
537.841127
 20
669.798024
 11
537.386517
 21
669.955698
  0
LINE
  8
TENKA
  6
PHANTOM2
 10
537.386517
 20
669.955698
 11
537.013429
 21
670.147825
  0
LINE
  8
TENKA
  6
PHANTOM2
 10
537.013429
 20
670.147825
 11
536.736199
 21
670.367020
  0
LINE
  8
TENKA
  6
PHANTOM2
 10
536.736199
 20
670.367020
 11
536.565482
 21
670.604861
  0
LINE
  8
TENKA
  6
PHANTOM2
 10
536.565482
 20
670.604861
 11
536.507838
 21
670.852207
  0
LINE
  8
TENKA
  6
PHANTOM2
 10
539.507838
 20
669.584352
 11
539.507838
 21
655.833882
  0
LINE
  8
TENKA
  6
PHANTOM2
 10
227.415927
 20
672.655114
 11
227.415927
 21
804.655114
  0
LINE
  8
TENKA
  6
PHANTOM2
 10
523.507838
 20
805.612784
 11
523.603911
 21
806.025028
  0
LINE
  8
TENKA
  6
PHANTOM2
 10
523.603911
 20
806.025028
 11
523.888440
 21
806.421429
  0
LINE
  8
TENKA
  6
PHANTOM2
 10
523.888440
 20
806.421429
 11
524.350490
 21
806.786755
  0
LINE
  8
TENKA
  6
PHANTOM2
 10
524.350490
 20
806.786755
 11
524.972304
 21
807.106965
  0
LINE
  8
TENKA
  6
PHANTOM2
 10
524.972304
 20
807.106965
 11
525.729986
 21
807.369756
  0
LINE
  8
TENKA
  6
PHANTOM2
 10
525.729986
 20
807.369756
 11
526.594420
 21
807.565026
  0
LINE
  8
TENKA
  6
PHANTOM2
 10
526.594420
 20
807.565026
 11
527.532386
 21
807.685273
  0
LINE
  8
TENKA
  6
PHANTOM2
 10
527.532386
 20
807.685273
 11
528.507838
 21
807.725876
  0
LINE
  8
TENKA
  6
PHANTOM2
 10
528.507838
 20
819.536749
 11
528.507838
 21
807.725876
  0
LINE
  8
TENKA
  6
PHANTOM2
 10
528.507838
 20
802.088696
 11
588.507838
 21
802.088696
  0
LINE
  8
TENKA
  6
PHANTOM2
 10
528.507838
 20
762.229692
 11
588.507838
 21
762.229692
  0
LINE
  8
TENKA
  6
PHANTOM2
 10
528.507838
 20
802.088696
 11
528.507838
 21
762.229692
  0
LINE
  8
TENKA
  6
PHANTOM2
 10
523.507838
 20
805.612784
 11
523.603911
 21
804.925269
  0
LINE
  8
TENKA
  6
PHANTOM2
 10
523.603911
 20
804.925269
 11
523.888440
 21
804.264174
  0
LINE
  8
TENKA
  6
PHANTOM2
 10
523.888440
 20
804.264174
 11
524.350490
 21
803.654906
  0
LINE
  8
TENKA
  6
PHANTOM2
 10
524.350490
 20
803.654906
 11
524.972304
 21
803.120878
  0
LINE
  8
TENKA
  6
PHANTOM2
 10
524.972304
 20
803.120878
 11
525.729986
 21
802.682612
  0
LINE
  8
TENKA
  6
PHANTOM2
 10
525.729986
 20
802.682612
 11
526.594420
 21
802.356952
  0
LINE
  8
TENKA
  6
PHANTOM2
 10
526.594420
 20
802.356952
 11
527.532386
 21
802.156411
  0
LINE
  8
TENKA
  6
PHANTOM2
 10
527.532386
 20
802.156411
 11
528.507838
 21
802.088696
  0
LINE
  8
TENKA
  6
PHANTOM2
 10
528.507838
 20
762.229692
 11
528.507838
 21
758.558417
  0
LINE
  8
TENKA
  6
PHANTOM2
 10
523.507838
 20
763.539390
 11
523.603911
 21
763.283881
  0
LINE
  8
TENKA
  6
PHANTOM2
 10
523.603911
 20
763.283881
 11
523.888440
 21
763.038190
  0
LINE
  8
TENKA
  6
PHANTOM2
 10
523.888440
 20
763.038190
 11
524.350490
 21
762.811761
  0
LINE
  8
TENKA
  6
PHANTOM2
 10
524.350490
 20
762.811761
 11
524.972304
 21
762.613293
  0
LINE
  8
TENKA
  6
PHANTOM2
 10
524.972304
 20
762.613293
 11
525.729986
 21
762.450416
  0
LINE
  8
TENKA
  6
PHANTOM2
 10
525.729986
 20
762.450416
 11
526.594420
 21
762.329386
  0
LINE
  8
TENKA
  6
PHANTOM2
 10
526.594420
 20
762.329386
 11
527.532386
 21
762.254857
  0
LINE
  8
TENKA
  6
PHANTOM2
 10
527.532386
 20
762.254857
 11
528.507838
 21
762.229692
  0
LINE
  8
TENKA
  6
PHANTOM2
 10
528.507838
 20
758.558417
 11
588.507838
 21
758.558417
  0
LINE
  8
TENKA
  6
PHANTOM2
 10
229.344290
 20
805.356981
 11
229.344290
 21
671.953247
  0
LINE
  8
TENKA
  6
PHANTOM2
 10
528.507838
 20
758.558417
 11
528.507838
 21
756.505390
  0
ARC
  8
TENKA
  6
PHANTOM2
 10
528.498342
 20
763.548922
 40
4.990514
 50
180.109430
 51
270.109013
  0
LINE
  8
TENKA
  6
PHANTOM2
 10
274.436200
 20
795.490543
 11
274.436200
 21
821.841631
  0
LINE
  8
TENKA
  6
PHANTOM2
 10
274.436200
 20
699.819685
 11
274.436200
 21
777.490543
  0
LINE
  8
TENKA
  6
PHANTOM2
 10
274.436200
 20
655.468597
 11
274.436200
 21
681.819685
  0
LINE
  8
TENKA
  6
PHANTOM2
 10
539.455480
 20
681.736405
 11
562.530041
 21
681.309689
  0
LINE
  8
TENKA
  6
PHANTOM2
 10
562.530041
 20
681.309689
 11
588.507838
 21
680.840900
  0
LINE
  8
TENKA
  6
PHANTOM2
 10
528.507838
 20
756.505390
 11
588.507838
 21
756.505390
  0
LINE
  8
TENKA
  6
PHANTOM2
 10
528.507838
 20
752.083951
 11
588.507838
 21
752.083951
  0
LINE
  8
TENKA
  6
PHANTOM2
 10
539.507838
 20
725.226277
 11
588.507838
 21
725.226277
  0
ARC
  8
TENKA
  6
PHANTOM2
 10
538.726106
 20
800.077776
 40
118.343618
 50
268.925968
 51
270.353127
  0
LINE
  8
TENKA
  6
PHANTOM2
 10
539.455480
 20
724.035231
 11
539.455480
 21
681.736405
  0
LINE
  8
TENKA
  6
PHANTOM2
 10
539.507838
 20
725.226277
 11
539.507838
 21
723.977260
  0
LINE
  8
TENKA
  6
PHANTOM2
 10
539.507838
 20
734.012351
 11
539.507838
 21
725.226277
  0
ARC
  8
TENKA
  6
PHANTOM2
 10
538.767230
 20
718.272491
 40
6.993113
 50
83.920674
 51
108.849789
  0
ARC
  8
TENKA
  6
PHANTOM2
 10
540.419753
 20
722.995962
 40
12.716729
 50
105.691486
 51
133.399453
  0
ARC
  8
TENKA
  6
PHANTOM2
 10
531.588678
 20
727.316888
 40
4.919702
 50
0.850820
 51
88.909190
  0
LINE
  8
TENKA
  6
PHANTOM2
 10
539.507838
 20
734.012351
 11
539.372531
 21
734.027579
  0
LINE
  8
TENKA
  6
PHANTOM2
 10
539.372531
 20
734.027579
 11
539.240268
 21
733.996075
  0
LINE
  8
TENKA
  6
PHANTOM2
 10
539.240268
 20
733.996075
 11
539.067669
 21
733.888125
  0
LINE
  8
TENKA
  6
PHANTOM2
 10
539.067669
 20
733.888125
 11
538.716625
 21
733.463465
  0
LINE
  8
TENKA
  6
PHANTOM2
 10
538.716625
 20
733.463465
 11
537.693588
 21
731.258414
  0
LINE
  8
TENKA
  6
PHANTOM2
 10
537.693588
 20
731.258414
 11
536.900959
 21
729.013653
  0
LINE
  8
TENKA
  6
PHANTOM2
 10
536.900959
 20
729.013653
 11
536.636399
 21
728.108873
  0
LINE
  8
TENKA
  6
PHANTOM2
 10
536.636399
 20
728.108873
 11
536.520684
 21
727.557494
  0
LINE
  8
TENKA
  6
PHANTOM2
 10
536.520684
 20
727.557494
 11
536.507838
 21
727.389941
  0
LINE
  8
TENKA
  6
PHANTOM2
 10
528.507838
 20
756.505390
 11
528.507838
 21
752.083951
  0
ARC
  8
TENKA
  6
PHANTOM2
 10
528.498342
 20
761.495895
 40
4.990514
 50
180.109430
 51
270.109013
  0
LINE
  8
TENKA
  6
PHANTOM2
 10
528.507838
 20
752.083951
 11
528.507838
 21
736.107216
  0
ARC
  8
TENKA
  6
PHANTOM2
 10
527.273492
 20
763.673594
 40
11.655189
 50
251.150211
 51
276.079326
  0
LINE
  8
TENKA
  6
PHANTOM2
 10
528.333340
 20
736.119194
 11
528.333340
 21
732.341322
  0
LINE
  8
TENKA
  6
PHANTOM2
 10
269.507838
 20
795.490543
 11
269.507838
 21
777.490543
  0
LINE
  8
TENKA
  6
PHANTOM2
 10
269.507838
 20
699.819685
 11
269.507838
 21
681.819685
  0
LINE
  8
TENKA
  6
PHANTOM2
 10
469.007838
 20
915.155114
 11
448.007838
 21
915.155114
  0
LINE
  8
TENKA
  6
PHANTOM2
 10
277.438039
 20
821.312326
 11
277.438039
 21
655.997902
  0
ARC
  8
TENKA
  6
PHANTOM2
 10
531.584712
 20
727.305088
 40
4.923615
 50
0.807170
 51
88.863886
  0
LINE
  8
TENKA
  6
PHANTOM2
 10
531.682335
 20
732.227735
 11
528.333340
 21
732.341322
  0
LINE
  8
TENKA
  6
PHANTOM2
 10
531.682335
 20
657.213730
 11
531.682335
 21
732.227735
  0
LINE
  8
TENKA
  6
PHANTOM2
 10
528.333340
 20
732.341322
 11
528.333340
 21
657.804248
  0
ARC
  8
TENKA
  6
PHANTOM2
 10
528.432007
 20
737.265712
 40
4.925379
 50
181.396994
 51
268.852153
  0
ARC
  8
TENKA
  6
PHANTOM2
 10
556.007838
 20
863.655114
 40
12.908550
 50
24.674584
 51
335.325416
  0
ARC
  8
TENKA
  6
PHANTOM2
 10
246.007838
 20
863.655114
 40
12.908550
 50
204.674584
 51
155.325416
  0
ARC
  8
TENKA
  6
PHANTOM2
 10
556.007838
 20
613.655114
 40
12.908550
 50
24.674584
 51
335.325416
  0
ARC
  8
TENKA
  6
PHANTOM2
 10
246.007838
 20
613.655114
 40
12.908550
 50
204.674584
 51
155.325416
  0
LINE
  8
TENKA
  6
PHANTOM2
 10
566.829612
 20
868.626759
 11
567.737752
 21
869.043969
  0
LINE
  8
TENKA
  6
PHANTOM2
 10
567.737752
 20
858.266259
 11
566.829612
 21
858.683469
  0
LINE
  8
TENKA
  6
PHANTOM2
 10
235.186063
 20
858.683469
 11
234.277923
 21
858.266259
  0
LINE
  8
TENKA
  6
PHANTOM2
 10
234.277923
 20
869.043969
 11
235.186063
 21
868.626759
  0
LINE
  8
TENKA
  6
PHANTOM2
 10
235.186063
 20
608.683469
 11
234.277923
 21
608.266259
  0
LINE
  8
TENKA
  6
PHANTOM2
 10
234.277923
 20
619.043969
 11
235.186063
 21
618.626759
  0
LINE
  8
TENKA
  6
PHANTOM2
 10
566.829612
 20
608.683469
 11
567.737752
 21
608.266259
  0
LINE
  8
TENKA
  6
PHANTOM2
 10
567.737752
 20
619.043969
 11
566.829612
 21
618.626759
  0
ARC
  8
TENKA
  6
PHANTOM2
 10
528.507838
 20
894.715673
 40
1.229914
 50
75.000000
 51
180.000000
  0
ARC
  8
TENKA
  6
PHANTOM2
 10
287.507838
 20
894.715673
 40
1.229914
 50
0.000000
 51
105.000000
  0
LINE
  8
TENKA
  6
PHANTOM2
 10
528.826163
 20
895.903679
 11
529.602147
 21
898.799691
  0
LINE
  8
TENKA
  6
PHANTOM2
 10
566.826163
 20
885.721610
 11
528.826163
 21
895.903679
  0
LINE
  8
TENKA
  6
PHANTOM2
 10
567.602147
 20
888.617622
 11
566.826163
 21
885.721610
  0
ARC
  8
TENKA
  6
PHANTOM2
 10
566.507838
 20
884.533604
 40
1.229914
 50
0.000000
 51
75.000000
  0
ARC
  8
TENKA
  6
PHANTOM2
 10
235.507838
 20
880.782315
 40
1.229914
 50
105.000000
 51
180.000000
  0
LINE
  8
TENKA
  6
PHANTOM2
 10
287.189512
 20
895.903679
 11
286.413528
 21
898.799691
  0
LINE
  8
TENKA
  6
PHANTOM2
 10
235.189512
 20
881.970321
 11
234.413528
 21
884.866333
  0
LINE
  8
TENKA
  6
PHANTOM2
 10
287.189512
 20
895.903679
 11
235.189512
 21
881.970321
  0
LINE
  8
TENKA
  6
PHANTOM2
 10
234.277923
 20
858.266259
 11
234.277923
 21
845.968004
  0
ARC
  8
TENKA
  6
PHANTOM2
 10
250.318237
 20
863.655114
 40
16.921330
 50
161.429867
 51
198.570133
  0
LINE
  8
TENKA
  6
PHANTOM2
 10
234.277923
 20
880.782315
 11
234.277923
 21
869.043969
  0
LINE
  8
TENKA
  6
PHANTOM2
 10
234.277923
 20
880.782315
 11
231.279751
 21
880.782315
  0
LINE
  8
TENKA
  6
PHANTOM2
 10
567.737752
 20
869.043969
 11
567.737752
 21
884.533604
  0
ARC
  8
TENKA
  6
PHANTOM2
 10
551.697439
 20
863.655114
 40
16.921330
 50
341.429867
 51
18.570133
  0
LINE
  8
TENKA
  6
PHANTOM2
 10
567.737752
 20
843.499427
 11
567.737752
 21
858.266259
  0
LINE
  8
TENKA
  6
PHANTOM2
 10
570.735925
 20
884.533604
 11
567.737752
 21
884.533604
  0
LINE
  8
TENKA
  6
PHANTOM2
 10
570.735925
 20
843.499427
 11
567.737752
 21
843.499427
  0
ARC
  8
TENKA
  6
PHANTOM2
 10
566.507838
 20
843.499427
 40
1.229914
 50
280.000000
 51
360.000000
  0
LINE
  8
TENKA
  6
PHANTOM2
 10
288.737752
 20
894.715673
 11
291.735925
 21
894.715673
  0
LINE
  8
TENKA
  6
PHANTOM2
 10
288.737752
 20
836.799001
 11
288.737752
 21
894.715673
  0
ARC
  8
TENKA
  6
PHANTOM2
 10
235.507838
 20
845.968004
 40
1.229914
 50
180.000000
 51
260.000000
  0
LINE
  8
TENKA
  6
PHANTOM2
 10
231.279751
 20
845.968004
 11
234.277923
 21
845.968004
  0
LINE
  8
TENKA
  6
PHANTOM2
 10
527.277923
 20
894.715673
 11
524.279751
 21
894.715673
  0
LINE
  8
TENKA
  6
PHANTOM2
 10
527.277923
 20
894.715673
 11
527.277923
 21
836.799001
  0
LINE
  8
TENKA
  6
PHANTOM2
 10
235.294265
 20
844.756775
 11
287.294265
 21
835.587772
  0
LINE
  8
TENKA
  6
PHANTOM2
 10
234.773638
 20
841.804151
 11
235.294265
 21
844.756775
  0
LINE
  8
TENKA
  6
PHANTOM2
 10
291.735925
 20
836.799001
 11
288.737752
 21
836.799001
  0
ARC
  8
TENKA
  6
PHANTOM2
 10
287.507838
 20
836.799001
 40
1.229914
 50
260.000000
 51
360.000000
  0
LINE
  8
TENKA
  6
PHANTOM2
 10
286.773638
 20
832.635148
 11
287.294265
 21
835.587772
  0
LINE
  8
TENKA
  6
PHANTOM2
 10
527.277923
 20
836.799001
 11
524.279751
 21
836.799001
  0
ARC
  8
TENKA
  6
PHANTOM2
 10
528.507838
 20
836.799001
 40
1.229914
 50
180.000000
 51
280.000000
  0
LINE
  8
TENKA
  6
PHANTOM2
 10
528.721410
 20
835.587772
 11
529.242037
 21
832.635148
  0
LINE
  8
TENKA
  6
PHANTOM2
 10
567.242037
 20
839.335574
 11
566.721410
 21
842.288197
  0
LINE
  8
TENKA
  6
PHANTOM2
 10
528.721410
 20
835.587772
 11
566.721410
 21
842.288197
  0
ARC
  8
TENKA
  6
PHANTOM2
 10
287.507838
 20
640.511227
 40
1.229914
 50
0.000000
 51
100.000000
  0
ARC
  8
TENKA
  6
PHANTOM2
 10
528.507838
 20
640.511227
 40
1.229914
 50
80.000000
 51
180.000000
  0
LINE
  8
TENKA
  6
PHANTOM2
 10
286.773638
 20
644.675079
 11
287.294265
 21
641.722456
  0
LINE
  8
TENKA
  6
PHANTOM2
 10
287.294265
 20
641.722456
 11
235.294265
 21
632.553453
  0
ARC
  8
TENKA
  6
PHANTOM2
 10
566.507838
 20
633.810801
 40
1.229914
 50
0.000000
 51
80.000000
  0
LINE
  8
TENKA
  6
PHANTOM2
 10
566.721410
 20
635.022031
 11
567.242037
 21
637.974654
  0
LINE
  8
TENKA
  6
PHANTOM2
 10
529.242037
 20
644.675079
 11
528.721410
 21
641.722456
  0
LINE
  8
TENKA
  6
PHANTOM2
 10
566.721410
 20
635.022031
 11
528.721410
 21
641.722456
  0
LINE
  8
TENKA
  6
PHANTOM2
 10
235.294265
 20
632.553453
 11
234.773638
 21
635.506076
  0
ARC
  8
TENKA
  6
PHANTOM2
 10
235.507838
 20
631.342224
 40
1.229914
 50
100.000000
 51
180.000000
  0
LINE
  8
TENKA
  6
PHANTOM2
 10
234.277923
 20
608.266259
 11
234.277923
 21
596.527913
  0
ARC
  8
TENKA
  6
PHANTOM2
 10
250.318237
 20
613.655114
 40
16.921330
 50
161.429867
 51
198.570133
  0
LINE
  8
TENKA
  6
PHANTOM2
 10
234.277923
 20
631.342224
 11
234.277923
 21
619.043969
  0
LINE
  8
TENKA
  6
PHANTOM2
 10
234.277923
 20
631.342224
 11
231.279751
 21
631.342224
  0
LINE
  8
TENKA
  6
PHANTOM2
 10
567.737752
 20
619.043969
 11
567.737752
 21
633.810801
  0
ARC
  8
TENKA
  6
PHANTOM2
 10
551.697439
 20
613.655114
 40
16.921330
 50
341.429867
 51
18.570133
  0
LINE
  8
TENKA
  6
PHANTOM2
 10
567.737752
 20
592.776624
 11
567.737752
 21
608.266259
  0
LINE
  8
TENKA
  6
PHANTOM2
 10
567.737752
 20
633.810801
 11
570.735925
 21
633.810801
  0
LINE
  8
TENKA
  6
PHANTOM2
 10
234.277923
 20
596.527913
 11
231.279751
 21
596.527913
  0
ARC
  8
TENKA
  6
PHANTOM2
 10
235.507838
 20
596.527913
 40
1.229914
 50
180.000000
 51
255.000000
  0
LINE
  8
TENKA
  6
PHANTOM2
 10
567.737752
 20
592.776624
 11
570.735925
 21
592.776624
  0
ARC
  8
TENKA
  6
PHANTOM2
 10
566.507838
 20
592.776624
 40
1.229914
 50
285.000000
 51
360.000000
  0
LINE
  8
TENKA
  6
PHANTOM2
 10
235.189512
 20
595.339907
 11
234.413528
 21
592.443895
  0
LINE
  8
TENKA
  6
PHANTOM2
 10
235.189512
 20
595.339907
 11
287.189512
 21
581.406549
  0
ARC
  8
TENKA
  6
PHANTOM2
 10
528.507838
 20
582.594555
 40
1.229914
 50
180.000000
 51
285.000000
  0
ARC
  8
TENKA
  6
PHANTOM2
 10
287.507838
 20
582.594555
 40
1.229914
 50
255.000000
 51
360.000000
  0
LINE
  8
TENKA
  6
PHANTOM2
 10
286.413528
 20
578.510537
 11
287.189512
 21
581.406549
  0
LINE
  8
TENKA
  6
PHANTOM2
 10
529.602147
 20
578.510537
 11
528.826163
 21
581.406549
  0
LINE
  8
TENKA
  6
PHANTOM2
 10
566.826163
 20
591.588618
 11
567.602147
 21
588.692606
  0
LINE
  8
TENKA
  6
PHANTOM2
 10
528.826163
 20
581.406549
 11
566.826163
 21
591.588618
  0
LINE
  8
TENKA
  6
PHANTOM2
 10
524.279751
 20
582.594555
 11
527.277923
 21
582.594555
  0
LINE
  8
TENKA
  6
PHANTOM2
 10
527.277923
 20
640.511227
 11
527.277923
 21
582.594555
  0
LINE
  8
TENKA
  6
PHANTOM2
 10
524.279751
 20
640.511227
 11
527.277923
 21
640.511227
  0
LINE
  8
TENKA
  6
PHANTOM2
 10
291.735925
 20
640.511227
 11
288.737752
 21
640.511227
  0
LINE
  8
TENKA
  6
PHANTOM2
 10
288.737752
 20
582.594555
 11
288.737752
 21
640.511227
  0
LINE
  8
TENKA
  6
PHANTOM2
 10
291.735925
 20
582.594555
 11
288.737752
 21
582.594555
  0
LINE
  8
TENKA
  6
PHANTOM2
 10
310.007838
 20
562.155114
 11
331.007838
 21
562.155114
  0
ARC
  8
TENKA
  6
PHANTOM2
 10
528.507838
 20
894.715673
 40
4.228087
 50
75.000000
 51
180.000000
  0
LINE
  8
TENKA
  6
PHANTOM2
 10
524.279751
 20
894.715673
 11
523.850952
 21
894.715673
  0
LINE
  8
TENKA
  6
PHANTOM2
 10
524.279751
 20
836.799001
 11
524.279751
 21
894.715673
  0
LINE
  8
TENKA
  6
PHANTOM2
 10
524.279751
 20
836.799001
 11
523.850952
 21
836.799001
  0
ARC
  8
TENKA
  6
PHANTOM2
 10
528.507838
 20
836.799001
 40
4.228087
 50
180.000000
 51
280.000000
  0
ARC
  8
TENKA
  6
PHANTOM2
 10
528.507838
 20
640.511227
 40
4.228087
 50
80.000000
 51
180.000000
  0
LINE
  8
TENKA
  6
PHANTOM2
 10
524.279751
 20
640.511227
 11
523.850952
 21
640.511227
  0
LINE
  8
TENKA
  6
PHANTOM2
 10
524.279751
 20
582.594555
 11
524.279751
 21
640.511227
  0
LINE
  8
TENKA
  6
PHANTOM2
 10
524.279751
 20
582.594555
 11
523.850952
 21
582.594555
  0
ARC
  8
TENKA
  6
PHANTOM2
 10
528.507838
 20
582.594555
 40
4.228087
 50
180.000000
 51
285.000000
  0
LINE
  8
TENKA
  6
PHANTOM2
 10
523.850952
 20
894.715673
 11
523.850952
 21
836.799001
  0
LINE
  8
TENKA
  6
PHANTOM2
 10
523.850952
 20
640.511227
 11
523.850952
 21
582.594555
  0
LINE
  8
TENKA
  6
PHANTOM2
 10
518.507838
 20
663.655114
 11
518.507838
 21
813.655114
  0
LINE
  8
TENKA
  6
PHANTOM2
 10
518.853998
 20
836.799001
 11
518.853998
 21
894.715673
  0
LINE
  8
TENKA
  6
PHANTOM2
 10
483.507838
 20
908.655114
 11
415.507838
 21
908.655114
  0
LINE
  8
TENKA
  6
PHANTOM2
 10
415.507838
 20
568.655114
 11
483.507838
 21
568.655114
  0
LINE
  8
TENKA
  6
PHANTOM2
 10
518.853998
 20
582.594555
 11
518.853998
 21
640.511227
  0
ARC
  8
TENKA
  6
PHANTOM2
 10
528.507838
 20
640.511227
 40
9.653840
 50
173.213229
 51
180.000000
  0
LINE
  8
TENKA
  6
PHANTOM2
 10
523.850952
 20
640.511227
 11
518.853998
 21
640.511227
  0
ARC
  8
TENKA
  6
PHANTOM2
 10
528.507838
 20
640.511227
 40
4.656886
 50
80.000000
 51
180.000000
  0
ARC
  8
TENKA
  6
PHANTOM2
 10
528.507838
 20
836.799001
 40
9.653840
 50
180.000000
 51
186.786771
  0
ARC
  8
TENKA
  6
PHANTOM2
 10
528.507838
 20
836.799001
 40
4.656886
 50
180.000000
 51
280.000000
  0
LINE
  8
TENKA
  6
PHANTOM2
 10
523.850952
 20
836.799001
 11
518.853998
 21
836.799001
  0
ARC
  8
TENKA
  6
PHANTOM2
 10
528.507838
 20
582.594555
 40
9.653840
 50
180.000000
 51
191.571036
  0
ARC
  8
TENKA
  6
PHANTOM2
 10
528.507838
 20
582.594555
 40
4.656886
 50
180.000000
 51
285.000000
  0
LINE
  8
TENKA
  6
PHANTOM2
 10
523.850952
 20
582.594555
 11
518.853998
 21
582.594555
  0
ARC
  8
TENKA
  6
PHANTOM2
 10
528.507838
 20
894.715673
 40
9.653840
 50
168.428964
 51
180.000000
  0
LINE
  8
TENKA
  6
PHANTOM2
 10
523.850952
 20
894.715673
 11
518.853998
 21
894.715673
  0
ARC
  8
TENKA
  6
PHANTOM2
 10
528.507838
 20
894.715673
 40
4.656886
 50
75.000000
 51
180.000000
  0
LINE
  8
TENKA
  6
PHANTOM2
 10
523.507838
 20
814.459616
 11
521.226559
 21
813.655114
  0
LINE
  8
TENKA
  6
PHANTOM2
 10
521.226559
 20
663.655114
 11
523.507838
 21
662.850612
  0
LINE
  8
TENKA
  6
PHANTOM2
 10
519.050195
 20
896.652066
 11
483.507838
 21
896.652066
  0
LINE
  8
TENKA
  6
PHANTOM2
 10
483.507838
 20
835.658162
 11
518.921644
 21
835.658162
  0
LINE
  8
TENKA
  6
PHANTOM2
 10
518.921644
 20
641.652066
 11
483.507838
 21
641.652066
  0
LINE
  8
TENKA
  6
PHANTOM2
 10
483.507838
 20
580.658162
 11
519.050195
 21
580.658162
  0
LINE
  8
TENKA
  6
PHANTOM2
 10
415.507838
 20
913.655114
 11
415.507838
 21
908.655114
  0
LINE
  8
TENKA
  6
PHANTOM2
 10
483.507838
 20
908.655114
 11
483.507838
 21
913.655114
  0
LINE
  8
TENKA
  6
PHANTOM2
 10
483.507838
 20
908.655114
 11
488.507838
 21
908.655114
  0
LINE
  8
TENKA
  6
PHANTOM2
 10
483.507838
 20
896.652066
 11
483.507838
 21
908.655114
  0
ARC
  8
TENKA
  6
PHANTOM2
 10
287.507838
 20
894.715673
 40
4.228087
 50
0.000000
 51
105.000000
  0
LINE
  8
TENKA
  6
PHANTOM2
 10
234.413528
 20
884.866333
 11
286.413528
 21
898.799691
  0
LINE
  8
TENKA
  6
PHANTOM2
 10
286.413528
 20
898.799691
 11
286.213742
 21
899.545302
  0
LINE
  8
TENKA
  6
PHANTOM2
 10
529.602147
 20
898.799691
 11
529.713128
 21
899.213879
  0
LINE
  8
TENKA
  6
PHANTOM2
 10
529.602147
 20
898.799691
 11
567.602147
 21
888.617622
  0
LINE
  8
TENKA
  6
PHANTOM2
 10
567.602147
 20
888.617622
 11
567.801933
 21
889.363233
  0
ARC
  8
TENKA
  6
PHANTOM2
 10
566.507838
 20
884.533604
 40
4.228087
 50
0.000000
 51
75.000000
  0
ARC
  8
TENKA
  6
PHANTOM2
 10
235.507838
 20
880.782315
 40
4.228087
 50
105.000000
 51
180.000000
  0
LINE
  8
TENKA
  6
PHANTOM2
 10
234.413528
 20
884.866333
 11
234.213742
 21
885.611944
  0
LINE
  8
TENKA
  6
PHANTOM2
 10
231.279751
 20
845.968004
 11
231.279751
 21
880.782315
  0
LINE
  8
TENKA
  6
PHANTOM2
 10
231.279751
 20
880.782315
 11
230.507838
 21
880.782315
  0
LINE
  8
TENKA
  6
PHANTOM2
 10
570.735925
 20
884.533604
 11
571.507838
 21
884.533604
  0
LINE
  8
TENKA
  6
PHANTOM2
 10
570.735925
 20
884.533604
 11
570.735925
 21
843.499427
  0
LINE
  8
TENKA
  6
PHANTOM2
 10
291.735925
 20
894.715673
 11
292.507838
 21
894.715673
  0
LINE
  8
TENKA
  6
PHANTOM2
 10
291.735925
 20
894.715673
 11
291.735925
 21
836.799001
  0
ARC
  8
TENKA
  6
PHANTOM2
 10
235.507838
 20
845.968004
 40
4.228087
 50
180.000000
 51
260.000000
  0
LINE
  8
TENKA
  6
PHANTOM2
 10
231.279751
 20
845.968004
 11
230.507838
 21
845.968004
  0
LINE
  8
TENKA
  6
PHANTOM2
 10
570.735925
 20
843.499427
 11
571.507838
 21
843.499427
  0
ARC
  8
TENKA
  6
PHANTOM2
 10
566.507838
 20
843.499427
 40
4.228087
 50
280.000000
 51
360.000000
  0
LINE
  8
TENKA
  6
PHANTOM2
 10
518.507838
 20
813.655114
 11
483.507838
 21
813.655114
  0
LINE
  8
TENKA
  6
PHANTOM2
 10
518.507838
 20
813.655114
 11
518.507838
 21
818.655114
  0
LINE
  8
TENKA
  6
PHANTOM2
 10
521.226559
 20
813.655114
 11
518.507838
 21
813.655114
  0
LINE
  8
TENKA
  6
PHANTOM2
 10
286.773638
 20
832.635148
 11
234.773638
 21
841.804151
  0
LINE
  8
TENKA
  6
PHANTOM2
 10
234.773638
 20
841.804151
 11
234.639597
 21
841.043966
  0
LINE
  8
TENKA
  6
PHANTOM2
 10
567.242037
 20
839.335574
 11
567.376079
 21
838.575388
  0
LINE
  8
TENKA
  6
PHANTOM2
 10
567.242037
 20
839.335574
 11
529.242037
 21
832.635148
  0
LINE
  8
TENKA
  6
PHANTOM2
 10
529.242037
 20
832.635148
 11
529.316497
 21
832.212864
  0
LINE
  8
TENKA
  6
PHANTOM2
 10
291.735925
 20
836.799001
 11
292.507838
 21
836.799001
  0
ARC
  8
TENKA
  6
PHANTOM2
 10
287.507838
 20
836.799001
 40
4.228087
 50
260.000000
 51
360.000000
  0
LINE
  8
TENKA
  6
PHANTOM2
 10
286.773638
 20
832.635148
 11
286.639597
 21
831.874963
  0
LINE
  8
TENKA
  6
PHANTOM2
 10
483.507838
 20
813.655114
 11
483.507838
 21
835.658162
  0
LINE
  8
TENKA
  6
PHANTOM2
 10
518.507838
 20
663.655114
 11
521.226559
 21
663.655114
  0
LINE
  8
TENKA
  6
PHANTOM2
 10
518.507838
 20
658.655114
 11
518.507838
 21
663.655114
  0
LINE
  8
TENKA
  6
PHANTOM2
 10
483.507838
 20
663.655114
 11
518.507838
 21
663.655114
  0
LINE
  8
TENKA
  6
PHANTOM2
 10
483.507838
 20
641.652066
 11
483.507838
 21
663.655114
  0
LINE
  8
TENKA
  6
PHANTOM2
 10
529.242037
 20
644.675079
 11
529.316497
 21
645.097364
  0
LINE
  8
TENKA
  6
PHANTOM2
 10
529.242037
 20
644.675079
 11
567.242037
 21
637.974654
  0
ARC
  8
TENKA
  6
PHANTOM2
 10
287.507838
 20
640.511227
 40
4.228087
 50
0.000000
 51
100.000000
  0
LINE
  8
TENKA
  6
PHANTOM2
 10
567.242037
 20
637.974654
 11
567.376079
 21
638.734840
  0
ARC
  8
TENKA
  6
PHANTOM2
 10
566.507838
 20
633.810801
 40
4.228087
 50
0.000000
 51
80.000000
  0
LINE
  8
TENKA
  6
PHANTOM2
 10
234.773638
 20
635.506076
 11
286.773638
 21
644.675079
  0
LINE
  8
TENKA
  6
PHANTOM2
 10
286.773638
 20
644.675079
 11
286.639597
 21
645.435265
  0
ARC
  8
TENKA
  6
PHANTOM2
 10
235.507838
 20
631.342224
 40
4.228087
 50
100.000000
 51
180.000000
  0
LINE
  8
TENKA
  6
PHANTOM2
 10
234.773638
 20
635.506076
 11
234.639597
 21
636.266262
  0
ARC
  8
TENKA
  6
PHANTOM2
 10
235.507838
 20
596.527913
 40
4.228087
 50
180.000000
 51
255.000000
  0
ARC
  8
TENKA
  6
PHANTOM2
 10
566.507838
 20
592.776624
 40
4.228087
 50
285.000000
 51
360.000000
  0
LINE
  8
TENKA
  6
PHANTOM2
 10
231.279751
 20
596.527913
 11
230.507838
 21
596.527913
  0
LINE
  8
TENKA
  6
PHANTOM2
 10
231.279751
 20
596.527913
 11
231.279751
 21
631.342224
  0
LINE
  8
TENKA
  6
PHANTOM2
 10
231.279751
 20
631.342224
 11
230.507838
 21
631.342224
  0
ARC
  8
TENKA
  6
PHANTOM2
 10
287.507838
 20
582.594555
 40
4.228087
 50
255.000000
 51
360.000000
  0
LINE
  8
TENKA
  6
PHANTOM2
 10
286.413528
 20
578.510537
 11
286.213742
 21
577.764926
  0
LINE
  8
TENKA
  6
PHANTOM2
 10
286.413528
 20
578.510537
 11
234.413528
 21
592.443895
  0
LINE
  8
TENKA
  6
PHANTOM2
 10
234.413528
 20
592.443895
 11
234.213742
 21
591.698284
  0
LINE
  8
TENKA
  6
PHANTOM2
 10
570.735925
 20
633.810801
 11
571.507838
 21
633.810801
  0
LINE
  8
TENKA
  6
PHANTOM2
 10
570.735925
 20
633.810801
 11
570.735925
 21
592.776624
  0
LINE
  8
TENKA
  6
PHANTOM2
 10
570.735925
 20
592.776624
 11
571.507838
 21
592.776624
  0
LINE
  8
TENKA
  6
PHANTOM2
 10
567.602147
 20
588.692606
 11
567.801933
 21
587.946995
  0
LINE
  8
TENKA
  6
PHANTOM2
 10
567.602147
 20
588.692606
 11
529.602147
 21
578.510537
  0
LINE
  8
TENKA
  6
PHANTOM2
 10
529.602147
 20
578.510537
 11
529.713128
 21
578.096349
  0
LINE
  8
TENKA
  6
PHANTOM2
 10
483.507838
 20
568.655114
 11
483.507838
 21
580.658162
  0
LINE
  8
TENKA
  6
PHANTOM2
 10
291.735925
 20
640.511227
 11
292.507838
 21
640.511227
  0
LINE
  8
TENKA
  6
PHANTOM2
 10
291.735925
 20
640.511227
 11
291.735925
 21
582.594555
  0
LINE
  8
TENKA
  6
PHANTOM2
 10
291.735925
 20
582.594555
 11
292.507838
 21
582.594555
  0
LINE
  8
TENKA
  6
PHANTOM2
 10
488.507838
 20
568.655114
 11
483.507838
 21
568.655114
  0
LINE
  8
TENKA
  6
PHANTOM2
 10
483.507838
 20
563.655114
 11
483.507838
 21
568.655114
  0
LINE
  8
TENKA
  6
PHANTOM2
 10
415.507838
 20
568.655114
 11
415.507838
 21
563.655114
  0
LINE
  8
TENKA
  6
PHANTOM2
 10
410.507838
 20
568.655114
 11
415.507838
 21
568.655114
  0
LINE
  8
TENKA
  6
PHANTOM2
 10
415.507838
 20
908.655114
 11
415.507838
 21
568.655114
  0
LINE
  8
TENKA
  6
PHANTOM2
 10
410.507838
 20
908.655114
 11
415.507838
 21
908.655114
  0
LINE
  8
TENKA
  6
PHANTOM2
 10
488.504792
 20
901.649020
 11
519.050195
 21
901.649020
  0
LINE
  8
TENKA
  6
PHANTOM2
 10
519.050195
 20
901.649020
 11
519.050195
 21
896.652066
  0
LINE
  8
TENKA
  6
PHANTOM2
 10
526.563192
 20
900.166191
 11
524.990024
 21
899.521830
  0
LINE
  8
TENKA
  6
PHANTOM2
 10
524.990024
 20
899.521830
 11
523.509749
 21
898.603330
  0
LINE
  8
TENKA
  6
PHANTOM2
 10
523.509749
 20
898.603330
 11
522.241135
 21
897.773240
  0
LINE
  8
TENKA
  6
PHANTOM2
 10
522.241135
 20
897.773240
 11
520.857051
 21
897.123136
  0
LINE
  8
TENKA
  6
PHANTOM2
 10
520.857051
 20
897.123136
 11
519.050195
 21
896.652066
  0
LINE
  8
TENKA
  6
PHANTOM2
 10
519.050195
 20
901.649020
 11
521.925371
 21
901.635089
  0
LINE
  8
TENKA
  6
PHANTOM2
 10
519.050195
 20
575.661208
 11
488.504792
 21
575.661208
  0
LINE
  8
TENKA
  6
PHANTOM2
 10
519.050195
 20
580.658162
 11
520.857051
 21
580.187092
  0
LINE
  8
TENKA
  6
PHANTOM2
 10
520.857051
 20
580.187092
 11
522.219538
 21
579.549618
  0
LINE
  8
TENKA
  6
PHANTOM2
 10
522.219538
 20
579.549618
 11
523.509749
 21
578.706898
  0
LINE
  8
TENKA
  6
PHANTOM2
 10
523.509749
 20
578.706898
 11
524.936637
 21
577.816889
  0
LINE
  8
TENKA
  6
PHANTOM2
 10
524.936637
 20
577.816889
 11
526.563192
 21
577.144037
  0
LINE
  8
TENKA
  6
PHANTOM2
 10
519.050195
 20
580.658162
 11
519.050195
 21
575.661208
  0
LINE
  8
TENKA
  6
PHANTOM2
 10
521.925371
 20
575.675139
 11
519.050195
 21
575.661208
  0
LINE
  8
TENKA
  6
PHANTOM2
 10
488.504792
 20
646.649020
 11
518.921644
 21
646.649020
  0
LINE
  8
TENKA
  6
PHANTOM2
 10
518.921644
 20
646.649020
 11
518.921644
 21
641.652066
  0
LINE
  8
TENKA
  6
PHANTOM2
 10
526.919996
 20
645.602998
 11
526.709651
 21
645.540525
  0
LINE
  8
TENKA
  6
PHANTOM2
 10
526.709651
 20
645.540525
 11
525.008467
 21
644.710665
  0
LINE
  8
TENKA
  6
PHANTOM2
 10
525.008467
 20
644.710665
 11
523.556350
 21
643.532481
  0
LINE
  8
TENKA
  6
PHANTOM2
 10
523.556350
 20
643.532481
 11
522.323467
 21
642.562773
  0
LINE
  8
TENKA
  6
PHANTOM2
 10
522.323467
 20
642.562773
 11
520.650299
 21
641.928346
  0
LINE
  8
TENKA
  6
PHANTOM2
 10
520.650299
 20
641.928346
 11
518.921644
 21
641.652066
  0
LINE
  8
TENKA
  6
PHANTOM2
 10
518.921644
 20
646.649020
 11
522.455509
 21
646.626946
  0
LINE
  8
TENKA
  6
PHANTOM2
 10
518.921644
 20
835.658162
 11
520.650299
 21
835.381882
  0
LINE
  8
TENKA
  6
PHANTOM2
 10
520.650299
 20
835.381882
 11
522.323467
 21
834.747455
  0
LINE
  8
TENKA
  6
PHANTOM2
 10
522.323467
 20
834.747455
 11
523.556350
 21
833.777747
  0
LINE
  8
TENKA
  6
PHANTOM2
 10
523.556350
 20
833.777747
 11
525.008467
 21
832.599563
  0
LINE
  8
TENKA
  6
PHANTOM2
 10
525.008467
 20
832.599563
 11
526.919996
 21
831.707230
  0
LINE
  8
TENKA
  6
PHANTOM2
 10
518.921644
 20
835.658162
 11
518.921644
 21
830.661208
  0
LINE
  8
TENKA
  6
PHANTOM2
 10
522.455509
 20
830.683282
 11
522.293326
 21
830.681250
  0
LINE
  8
TENKA
  6
PHANTOM2
 10
522.293326
 20
830.681250
 11
518.921644
 21
830.661208
  0
LINE
  8
TENKA
  6
PHANTOM2
 10
518.921644
 20
830.661208
 11
488.504792
 21
830.661208
  0
LINE
  8
OBRYS
 10
223.507838
 20
672.655114
 11
223.507838
 21
804.655114
  0
LINE
  8
OBRYS
 10
213.507838
 20
616.110303
 11
213.507838
 21
861.199925
  0
LINE
  8
OBRYS
 10
198.507838
 20
613.655114
 11
198.507838
 21
863.655114
  0
LINE
  8
OBRYS
 10
716.007838
 20
709.655114
 11
716.007838
 21
767.655114
  0
LINE
  8
OBRYS
 10
715.007838
 20
708.655114
 11
715.007838
 21
768.655114
  0
LINE
  8
OBRYS
 10
596.007838
 20
699.383054
 11
596.007838
 21
777.927174
  0
LINE
  8
OBRYS
 10
594.007838
 20
698.655114
 11
594.007838
 21
778.655114
  0
LINE
  8
OBRYS
 10
588.507838
 20
849.057112
 11
588.507838
 21
848.639808
  0
LINE
  8
OBRYS
 10
588.507838
 20
628.670420
 11
588.507838
 21
628.253116
  0
LINE
  8
OBRYS
 10
588.507838
 20
807.725876
 11
588.507838
 21
802.088696
  0
LINE
  8
OBRYS
 10
588.507838
 20
675.221532
 11
588.507838
 21
669.584352
  0
LINE
  8
OBRYS
 10
588.507838
 20
678.763592
 11
588.507838
 21
675.221532
  0
LINE
  8
OBRYS
 10
588.507838
 20
680.840900
 11
588.507838
 21
678.763592
  0
LINE
  8
OBRYS
 10
588.507838
 20
848.639808
 11
588.507838
 21
835.210970
  0
LINE
  8
OBRYS
 10
588.507838
 20
642.099257
 11
588.507838
 21
628.670420
  0
LINE
  8
OBRYS
 10
588.507838
 20
829.074718
 11
588.507838
 21
807.725876
  0
LINE
  8
OBRYS
 10
588.507838
 20
669.584352
 11
588.507838
 21
648.235509
  0
LINE
  8
OBRYS
 10
588.507838
 20
835.210970
 11
588.507838
 21
829.074718
  0
LINE
  8
OBRYS
 10
588.507838
 20
648.235509
 11
588.507838
 21
642.099257
  0
LINE
  8
OBRYS
 10
223.507838
 20
804.655114
 11
223.507838
 21
672.655114
  0
LINE
  8
OBRYS
 10
592.007838
 20
818.655114
 11
592.007838
 21
658.655114
  0
LINE
  8
OBRYS
 10
588.507838
 20
802.088696
 11
588.507838
 21
762.229692
  0
LINE
  8
OBRYS
 10
588.507838
 20
762.229692
 11
588.507838
 21
758.558417
  0
LINE
  8
OBRYS
 10
588.507838
 20
758.558417
 11
588.507838
 21
756.505390
  0
LINE
  8
OBRYS
 10
588.507838
 20
680.840900
 11
588.507838
 21
724.845300
  0
LINE
  8
OBRYS
 10
588.507838
 20
756.505390
 11
588.507838
 21
752.083951
  0
LINE
  8
OBRYS
 10
588.507838
 20
725.226277
 11
588.507838
 21
724.802914
  0
LINE
  8
OBRYS
 10
588.507838
 20
724.802914
 11
578.509562
 21
724.632313
  0
LINE
  8
OBRYS
 10
578.509562
 20
724.632313
 11
539.507838
 21
723.977260
  0
LINE
  8
OBRYS
 10
588.507838
 20
752.083951
 11
588.507838
 21
725.226277
  0
ARC
  8
OBRYS
 10
539.733868
 20
720.759222
 40
3.229110
 50
94.945709
 51
182.502662
  0
LINE
  8
OBRYS
 10
539.507838
 20
723.977260
 11
539.455480
 21
723.976310
  0
LINE
  8
OBRYS
 10
536.507838
 20
727.389941
 11
536.507838
 21
727.374448
  0
LINE
  8
OBRYS
 10
528.507838
 20
736.107216
 11
536.508038
 21
735.278896
  0
LINE
  8
OBRYS
 10
536.508038
 20
735.278896
 11
536.980419
 21
735.238763
  0
ARC
  8
OBRYS
 10
537.158282
 20
732.387819
 40
2.856487
 50
34.660776
 51
93.569893
  0
LINE
  8
OBRYS
 10
528.507838
 20
736.107216
 11
528.333340
 21
736.119194
  0
LINE
  8
OBRYS
 10
523.508092
 20
737.145633
 11
523.516955
 21
737.000151
  0
LINE
  8
OBRYS
 10
523.516955
 20
737.000151
 11
523.611029
 21
736.760897
  0
LINE
  8
OBRYS
 10
523.611029
 20
736.760897
 11
524.203982
 21
736.447318
  0
LINE
  8
OBRYS
 10
524.203982
 20
736.447318
 11
525.272572
 21
736.262110
  0
LINE
  8
OBRYS
 10
525.272572
 20
736.262110
 11
526.701084
 21
736.157319
  0
LINE
  8
OBRYS
 10
526.701084
 20
736.157319
 11
528.333340
 21
736.119194
  0
LINE
  8
OBRYS
 10
268.507838
 20
778.490544
 11
268.507838
 21
794.490543
  0
LINE
  8
OBRYS
 10
268.507838
 20
682.819686
 11
268.507838
 21
698.819685
  0
LINE
  8
OBRYS
 10
468.007838
 20
916.155114
 11
449.007838
 21
916.155114
  0
LINE
  8
OBRYS
 10
275.507838
 20
655.657555
 11
275.507838
 21
821.652673
  0
LINE
  8
OBRYS
 10
287.507838
 20
657.773479
 11
287.507838
 21
819.536749
  0
LINE
  8
OBRYS
 10
536.507838
 20
727.374448
 11
536.507838
 21
656.362863
  0
LINE
  8
OBRYS
 10
523.507838
 20
737.185060
 11
523.507850
 21
737.176285
  0
LINE
  8
OBRYS
 10
523.507850
 20
737.176285
 11
523.508092
 21
737.145633
  0
ARC
  8
OBRYS
 10
555.941164
 20
863.655114
 40
11.969777
 50
335.458648
 51
24.541352
  0
ARC
  8
OBRYS
 10
246.074511
 20
863.655114
 40
11.969777
 50
155.458648
 51
204.541352
  0
ARC
  8
OBRYS
 10
246.074511
 20
613.655114
 40
11.969777
 50
155.458648
 51
204.541352
  0
ARC
  8
OBRYS
 10
555.941164
 20
613.655114
 40
11.969777
 50
335.458648
 51
24.541352
  0
LINE
  8
OBRYS
 10
311.007838
 20
561.155114
 11
330.007838
 21
561.155114
  0
LINE
  8
OBRYS
 10
415.507838
 20
913.655114
 11
483.507838
 21
913.655114
  0
LINE
  8
OBRYS
 10
523.507838
 20
814.459616
 11
523.507838
 21
662.850612
  0
LINE
  8
OBRYS
 10
483.507838
 20
563.655114
 11
415.507838
 21
563.655114
  0
ARC
  8
OBRYS
 10
528.507838
 20
814.459616
 40
5.000000
 50
100.000000
 51
180.000000
  0
ARC
  8
OBRYS
 10
528.507838
 20
662.850612
 40
5.000000
 50
180.000000
 51
260.000000
  0
LINE
  8
OBRYS
 10
410.507838
 20
913.655114
 11
415.507838
 21
913.655114
  0
LINE
  8
OBRYS
 10
483.507838
 20
913.655114
 11
488.507838
 21
913.655114
  0
LINE
  8
OBRYS
 10
483.507838
 20
896.652066
 11
488.504792
 21
901.649020
  0
ARC
  8
OBRYS
 10
418.793090
 20
538.012398
 40
377.848865
 50
72.928993
 51
73.427993
  0
LINE
  8
OBRYS
 10
521.226559
 20
813.655114
 11
521.224930
 21
813.682285
  0
LINE
  8
OBRYS
 10
521.224930
 20
813.682285
 11
521.209720
 21
814.307989
  0
LINE
  8
OBRYS
 10
521.209720
 20
814.307989
 11
521.379708
 21
815.908575
  0
LINE
  8
OBRYS
 10
521.379708
 20
815.908575
 11
521.836370
 21
817.254333
  0
LINE
  8
OBRYS
 10
521.836370
 20
817.254333
 11
522.529553
 21
818.198180
  0
LINE
  8
OBRYS
 10
522.529553
 20
818.198180
 11
523.381231
 21
818.632790
  0
LINE
  8
OBRYS
 10
529.316497
 20
832.212864
 11
529.306886
 21
832.210809
  0
LINE
  8
OBRYS
 10
529.306886
 20
832.210809
 11
526.919996
 21
831.707230
  0
LINE
  8
OBRYS
 10
579.801933
 20
898.571157
 11
524.143670
 21
913.484743
  0
ARC
  8
OBRYS
 10
522.849575
 20
908.655114
 40
5.000000
 50
75.000000
 51
90.000000
  0
LINE
  8
OBRYS
 10
522.849575
 20
913.655114
 11
488.507838
 21
913.655114
  0
LINE
  8
OBRYS
 10
488.507838
 20
913.655114
 11
488.507838
 21
908.655114
  0
LINE
  8
OBRYS
 10
488.507838
 20
908.655114
 11
488.507838
 21
901.655114
  0
LINE
  8
OBRYS
 10
567.801933
 20
889.363233
 11
521.928008
 21
901.655114
  0
ARC
  8
OBRYS
 10
566.507838
 20
884.533604
 40
5.000000
 50
0.000000
 51
75.000000
  0
LINE
  8
OBRYS
 10
571.507838
 20
843.499427
 11
571.507838
 21
884.533604
  0
ARC
  8
OBRYS
 10
566.507838
 20
843.499427
 40
5.000000
 50
280.000000
 51
360.000000
  0
LINE
  8
OBRYS
 10
522.457974
 20
830.655114
 11
567.376079
 21
838.575388
  0
LINE
  8
OBRYS
 10
488.507838
 20
818.655114
 11
518.507838
 21
818.655114
  0
LINE
  8
OBRYS
 10
518.507838
 20
818.655114
 11
523.507838
 21
818.655114
  0
LINE
  8
OBRYS
 10
523.507838
 20
818.655114
 11
579.376079
 21
828.506192
  0
ARC
  8
OBRYS
 10
578.507838
 20
833.430231
 40
5.000000
 50
280.000000
 51
360.000000
  0
LINE
  8
OBRYS
 10
583.507838
 20
833.430231
 11
583.507838
 21
893.741527
  0
ARC
  8
OBRYS
 10
578.507838
 20
893.741527
 40
5.000000
 50
0.000000
 51
75.000000
  0
LINE
  8
OBRYS
 10
483.507838
 20
813.655114
 11
488.507838
 21
818.655114
  0
LINE
  8
OBRYS
 10
488.507838
 20
830.655114
 11
488.507838
 21
818.655114
  0
LINE
  8
OBRYS
 10
488.504792
 20
830.661208
 11
483.507838
 21
835.658162
  0
LINE
  8
OBRYS
 10
523.381231
 20
658.677438
 11
522.529553
 21
659.112048
  0
LINE
  8
OBRYS
 10
522.529553
 20
659.112048
 11
521.836370
 21
660.055895
  0
LINE
  8
OBRYS
 10
521.836370
 20
660.055895
 11
521.379708
 21
661.401653
  0
LINE
  8
OBRYS
 10
521.379708
 20
661.401653
 11
521.209720
 21
663.002239
  0
LINE
  8
OBRYS
 10
521.209720
 20
663.002239
 11
521.224930
 21
663.627943
  0
LINE
  8
OBRYS
 10
521.224930
 20
663.627943
 11
521.226559
 21
663.655114
  0
LINE
  8
OBRYS
 10
488.507838
 20
658.655114
 11
483.507838
 21
663.655114
  0
LINE
  8
OBRYS
 10
483.507838
 20
641.652066
 11
488.504792
 21
646.649020
  0
LINE
  8
OBRYS
 10
526.919996
 20
645.602998
 11
529.306886
 21
645.099419
  0
LINE
  8
OBRYS
 10
529.306886
 20
645.099419
 11
529.316497
 21
645.097364
  0
ARC
  8
OBRYS
 10
454.834317
 20
820.085271
 40
253.309050
 50
286.449339
 51
287.193675
  0
LINE
  8
OBRYS
 10
488.504792
 20
575.661208
 11
483.507838
 21
580.658162
  0
LINE
  8
OBRYS
 10
488.507838
 20
563.655114
 11
483.507838
 21
563.655114
  0
LINE
  8
OBRYS
 10
415.507838
 20
563.655114
 11
410.507838
 21
563.655114
  0
LINE
  8
OBRYS
 10
488.507838
 20
563.655114
 11
522.849575
 21
563.655114
  0
ARC
  8
OBRYS
 10
522.849575
 20
568.655114
 40
5.000000
 50
270.000000
 51
285.000000
  0
LINE
  8
OBRYS
 10
524.143670
 20
563.825485
 11
579.801933
 21
578.739071
  0
ARC
  8
OBRYS
 10
578.507838
 20
583.568700
 40
5.000000
 50
285.000000
 51
360.000000
  0
LINE
  8
OBRYS
 10
583.507838
 20
583.568700
 11
583.507838
 21
643.879997
  0
ARC
  8
OBRYS
 10
578.507838
 20
643.879997
 40
5.000000
 50
0.000000
 51
80.000000
  0
LINE
  8
OBRYS
 10
579.376079
 20
648.804036
 11
523.507838
 21
658.655114
  0
LINE
  8
OBRYS
 10
523.507838
 20
658.655114
 11
518.507838
 21
658.655114
  0
LINE
  8
OBRYS
 10
518.507838
 20
658.655114
 11
488.507838
 21
658.655114
  0
LINE
  8
OBRYS
 10
488.507838
 20
658.655114
 11
488.507838
 21
646.655114
  0
LINE
  8
OBRYS
 10
567.376079
 20
638.734840
 11
522.457974
 21
646.655114
  0
ARC
  8
OBRYS
 10
566.507838
 20
633.810801
 40
5.000000
 50
0.000000
 51
80.000000
  0
LINE
  8
OBRYS
 10
571.507838
 20
592.776624
 11
571.507838
 21
633.810801
  0
ARC
  8
OBRYS
 10
566.507838
 20
592.776624
 40
5.000000
 50
285.000000
 51
360.000000
  0
LINE
  8
OBRYS
 10
521.928008
 20
575.655114
 11
567.801933
 21
587.946995
  0
LINE
  8
OBRYS
 10
488.507838
 20
575.655114
 11
488.507838
 21
568.655114
  0
LINE
  8
OBRYS
 10
488.507838
 20
568.655114
 11
488.507838
 21
563.655114
  0
ARC
  8
OBRYS
 10
235.507838
 20
845.968004
 40
5.000000
 50
180.000000
 51
260.000000
  0
LINE
  8
OBRYS
 10
230.507838
 20
880.782315
 11
230.507838
 21
845.968004
  0
ARC
  8
OBRYS
 10
235.507838
 20
880.782315
 40
5.000000
 50
105.000000
 51
180.000000
  0
LINE
  8
OBRYS
 10
286.213742
 20
899.545302
 11
234.213742
 21
885.611944
  0
ARC
  8
OBRYS
 10
287.507838
 20
894.715673
 40
5.000000
 50
0.000000
 51
105.000000
  0
LINE
  8
OBRYS
 10
292.507838
 20
836.799001
 11
292.507838
 21
894.715673
  0
ARC
  8
OBRYS
 10
287.507838
 20
836.799001
 40
5.000000
 50
260.000000
 51
360.000000
  0
LINE
  8
OBRYS
 10
234.639597
 20
841.043966
 11
286.639597
 21
831.874963
  0
ARC
  8
OBRYS
 10
287.507838
 20
582.594555
 40
5.000000
 50
255.000000
 51
360.000000
  0
LINE
  8
OBRYS
 10
234.213742
 20
591.698284
 11
286.213742
 21
577.764926
  0
ARC
  8
OBRYS
 10
235.507838
 20
596.527913
 40
5.000000
 50
180.000000
 51
255.000000
  0
LINE
  8
OBRYS
 10
230.507838
 20
631.342224
 11
230.507838
 21
596.527913
  0
ARC
  8
OBRYS
 10
235.507838
 20
631.342224
 40
5.000000
 50
100.000000
 51
180.000000
  0
LINE
  8
OBRYS
 10
286.639597
 20
645.435265
 11
234.639597
 21
636.266262
  0
ARC
  8
OBRYS
 10
287.507838
 20
640.511227
 40
5.000000
 50
0.000000
 51
100.000000
  0
LINE
  8
OBRYS
 10
292.507838
 20
582.594555
 11
292.507838
 21
640.511227
  0
LINE
  8
OBRYS
 10
218.507838
 20
889.990239
 11
218.507838
 21
835.898809
  0
ARC
  8
OBRYS
 10
223.507838
 20
835.898809
 40
5.000000
 50
180.000000
 51
260.000000
  0
LINE
  8
OBRYS
 10
222.639597
 20
830.974770
 11
288.376079
 21
819.383655
  0
ARC
  8
OBRYS
 10
287.507838
 20
814.459616
 40
5.000000
 50
0.000000
 51
80.000000
  0
LINE
  8
OBRYS
 10
292.507838
 20
814.459616
 11
292.507838
 21
662.850612
  0
ARC
  8
OBRYS
 10
287.507838
 20
662.850612
 40
5.000000
 50
280.000000
 51
360.000000
  0
LINE
  8
OBRYS
 10
288.376079
 20
657.926573
 11
222.639597
 21
646.335458
  0
ARC
  8
OBRYS
 10
223.507838
 20
641.411419
 40
5.000000
 50
100.000000
 51
180.000000
  0
LINE
  8
OBRYS
 10
218.507838
 20
641.411419
 11
218.507838
 21
587.319989
  0
ARC
  8
OBRYS
 10
223.507838
 20
587.319989
 40
5.000000
 50
180.000000
 51
255.000000
  0
LINE
  8
OBRYS
 10
222.213742
 20
582.490360
 11
291.872005
 21
563.825485
  0
ARC
  8
OBRYS
 10
293.166100
 20
568.655114
 40
5.000000
 50
255.000000
 51
270.000000
  0
LINE
  8
OBRYS
 10
293.166100
 20
563.655114
 11
410.507838
 21
563.655114
  0
LINE
  8
OBRYS
 10
410.507838
 20
563.655114
 11
410.507838
 21
568.655114
  0
LINE
  8
OBRYS
 10
410.507838
 20
568.655114
 11
410.507838
 21
908.655114
  0
LINE
  8
OBRYS
 10
410.507838
 20
908.655114
 11
410.507838
 21
913.655114
  0
LINE
  8
OBRYS
 10
410.507838
 20
913.655114
 11
293.166100
 21
913.655114
  0
ARC
  8
OBRYS
 10
293.166100
 20
908.655114
 40
5.000000
 50
90.000000
 51
105.000000
  0
LINE
  8
OBRYS
 10
291.872005
 20
913.484743
 11
222.213742
 21
894.819868
  0
ARC
  8
OBRYS
 10
223.507838
 20
889.990239
 40
5.000000
 50
105.000000
 51
180.000000
  0
LINE
  8
OBRYS
 10
521.925371
 20
901.635089
 11
521.928008
 21
901.655114
  0
LINE
  8
OBRYS
 10
521.928008
 20
901.655114
 11
488.507838
 21
901.655114
  0
LINE
  8
OBRYS
 10
488.507838
 20
901.655114
 11
488.507076
 21
901.652067
  0
LINE
  8
OBRYS
 10
488.507076
 20
901.652067
 11
488.504792
 21
901.649020
  0
ARC
  8
OBRYS
 10
568.005923
 20
1039.071382
 40
144.955689
 50
251.464386
 51
253.387388
  0
LINE
  8
OBRYS
 10
521.925371
 20
575.675139
 11
521.928008
 21
575.655114
  0
LINE
  8
OBRYS
 10
488.504792
 20
575.661208
 11
488.507076
 21
575.658161
  0
LINE
  8
OBRYS
 10
488.507076
 20
575.658161
 11
488.507838
 21
575.655114
  0
LINE
  8
OBRYS
 10
488.507838
 20
575.655114
 11
521.928008
 21
575.655114
  0
ARC
  8
OBRYS
 10
531.638476
 20
553.063542
 40
24.609525
 50
101.901657
 51
113.246569
  0
LINE
  8
OBRYS
 10
522.455509
 20
646.626946
 11
522.457974
 21
646.655114
  0
LINE
  8
OBRYS
 10
522.457974
 20
646.655114
 11
488.507838
 21
646.655114
  0
LINE
  8
OBRYS
 10
488.507838
 20
646.655114
 11
488.507076
 21
646.652067
  0
LINE
  8
OBRYS
 10
488.507076
 20
646.652067
 11
488.504792
 21
646.649020
  0
ARC
  8
OBRYS
 10
561.941254
 20
808.542865
 40
166.660999
 50
256.295024
 51
257.869754
  0
ARC
  8
OBRYS
 10
552.204516
 20
711.220226
 40
123.111434
 50
101.851694
 51
103.983527
  0
LINE
  8
OBRYS
 10
522.455509
 20
830.683282
 11
522.457974
 21
830.655114
  0
LINE
  8
OBRYS
 10
488.504792
 20
830.661208
 11
488.507076
 21
830.658161
  0
LINE
  8
OBRYS
 10
488.507076
 20
830.658161
 11
488.507838
 21
830.655114
  0
LINE
  8
OBRYS
 10
488.507838
 20
830.655114
 11
522.457974
 21
830.655114
  0
LINE
  8
OBRYS
 10
223.507838
 20
804.655114
 11
216.403139
 21
804.903216
  0
LINE
  8
OBRYS
 10
216.403139
 20
672.407012
 11
223.507838
 21
672.655114
  0
ARC
  8
OBRYS
 10
216.507838
 20
807.901388
 40
3.000000
 50
180.000000
 51
268.000000
  0
ARC
  8
OBRYS
 10
216.507838
 20
669.408840
 40
3.000000
 50
92.000000
 51
180.000000
  0
ARC
  8
OBRYS
 10
211.507838
 20
861.199925
 40
2.000000
 50
0.000000
 51
88.000000
  0
ARC
  8
OBRYS
 10
211.507838
 20
616.110303
 40
2.000000
 50
272.000000
 51
360.000000
  0
LINE
  8
OBRYS
 10
211.577637
 20
863.198707
 11
198.507838
 21
863.655114
  0
LINE
  8
OBRYS
 10
198.507838
 20
613.655114
 11
211.577637
 21
614.111521
  0
LINE
  8
OBRYS
 10
716.007838
 20
767.655114
 11
715.007838
 21
768.655114
  0
LINE
  8
OBRYS
 10
715.007838
 20
708.655114
 11
716.007838
 21
709.655114
  0
LINE
  8
OBRYS
 10
715.007838
 20
768.655114
 11
596.007838
 21
768.655114
  0
LINE
  8
OBRYS
 10
596.007838
 20
708.655114
 11
715.007838
 21
708.655114
  0
LINE
  8
OBRYS
 10
594.007838
 20
778.655114
 11
592.007838
 21
778.655114
  0
LINE
  8
OBRYS
 10
592.007838
 20
698.655114
 11
594.007838
 21
698.655114
  0
LINE
  8
OBRYS
 10
596.007838
 20
777.927174
 11
594.007838
 21
778.655114
  0
LINE
  8
OBRYS
 10
594.007838
 20
698.655114
 11
596.007838
 21
699.383054
  0
LINE
  8
OBRYS
 10
588.507838
 20
849.057112
 11
583.507838
 21
849.057112
  0
LINE
  8
OBRYS
 10
583.507838
 20
628.253116
 11
588.507838
 21
628.253116
  0
LINE
  8
OBRYS
 10
223.507838
 20
672.655114
 11
227.415927
 21
672.655114
  0
LINE
  8
OBRYS
 10
227.415927
 20
804.655114
 11
223.507838
 21
804.655114
  0
ARC
  8
OBRYS
 10
227.415927
 20
669.655114
 40
3.000000
 50
50.000000
 51
90.000000
  0
ARC
  8
OBRYS
 10
227.415927
 20
807.655114
 40
3.000000
 50
270.000000
 51
310.000000
  0
LINE
  8
OBRYS
 10
592.007838
 20
818.655114
 11
588.507838
 21
818.655114
  0
LINE
  8
OBRYS
 10
588.507838
 20
658.655114
 11
592.007838
 21
658.655114
  0
LINE
  8
OBRYS
 10
229.344290
 20
671.953247
 11
253.408630
 21
651.760869
  0
LINE
  8
OBRYS
 10
253.408630
 20
825.549359
 11
229.344290
 21
805.356981
  0
ARC
  8
OBRYS
 10
269.507838
 20
794.490543
 40
1.000000
 50
90.000000
 51
180.000000
  0
ARC
  8
OBRYS
 10
269.507838
 20
778.490543
 40
1.000000
 50
180.000000
 51
270.000000
  0
LINE
  8
OBRYS
 10
269.507838
 20
777.490543
 11
275.507838
 21
777.490543
  0
LINE
  8
OBRYS
 10
275.507838
 20
795.490543
 11
269.507838
 21
795.490543
  0
ARC
  8
OBRYS
 10
269.507838
 20
698.819685
 40
1.000000
 50
90.000000
 51
180.000000
  0
ARC
  8
OBRYS
 10
269.507838
 20
682.819685
 40
1.000000
 50
180.000000
 51
270.000000
  0
LINE
  8
OBRYS
 10
269.507838
 20
681.819685
 11
275.507838
 21
681.819685
  0
LINE
  8
OBRYS
 10
275.507838
 20
699.819685
 11
269.507838
 21
699.819685
  0
ARC
  8
OBRYS
 10
468.007838
 20
915.155114
 40
1.000000
 50
0.000000
 51
90.000000
  0
ARC
  8
OBRYS
 10
449.007838
 20
915.155114
 40
1.000000
 50
90.000000
 51
180.000000
  0
LINE
  8
OBRYS
 10
448.007838
 20
915.155114
 11
448.007838
 21
913.655114
  0
LINE
  8
OBRYS
 10
469.007838
 20
913.655114
 11
469.007838
 21
915.155114
  0
ARC
  8
OBRYS
 10
311.007838
 20
562.155114
 40
1.000000
 50
180.000000
 51
270.000000
  0
ARC
  8
OBRYS
 10
330.007838
 20
562.155114
 40
1.000000
 50
270.000000
 51
360.000000
  0
LINE
  8
OBRYS
 10
331.007838
 20
562.155114
 11
331.007838
 21
563.655114
  0
LINE
  8
OBRYS
 10
310.007838
 20
563.655114
 11
310.007838
 21
562.155114
  0
CIRCLE
  8
TENKA
  6
PHANTOM2
 10
1024.091151
 20
152.789876
 40
41.500000
  0
ARC
  8
TENKA
  6
PHANTOM2
 10
1024.091151
 20
152.789876
 40
116.894019
 50
327.900335
 51
32.099665
  0
ARC
  8
TENKA
  6
PHANTOM2
 10
1024.091151
 20
152.789876
 40
98.105981
 50
327.900335
 51
32.099665
  0
LINE
  8
TENKA
  6
PHANTOM2
 10
1123.115000
 20
214.906613
 11
1124.808218
 21
215.968753
  0
LINE
  8
TENKA
  6
PHANTOM2
 10
1105.505965
 20
203.860630
 11
1107.199183
 21
204.922769
  0
ARC
  8
TENKA
  6
PHANTOM2
 10
1115.157092
 20
209.914691
 40
9.394019
 50
32.099665
 51
212.099665
  0
LINE
  8
TENKA
  6
PHANTOM2
 10
1105.505965
 20
101.719123
 11
1107.199183
 21
100.656983
  0
LINE
  8
TENKA
  6
PHANTOM2
 10
1123.115000
 20
90.673140
 11
1124.808218
 21
89.611000
  0
ARC
  8
TENKA
  6
PHANTOM2
 10
1115.157092
 20
95.665061
 40
9.394019
 50
147.900335
 51
327.900335
  0
ARC
  8
TENKA
  6
PHANTOM2
 10
1081.215966
 20
61.723936
 40
9.394019
 50
302.099665
 51
122.099665
  0
ARC
  8
TENKA
  6
PHANTOM2
 10
1081.215966
 20
243.855817
 40
9.394019
 50
237.900335
 51
57.900335
  0
LINE
  8
TENKA
  6
PHANTOM2
 10
1076.224045
 20
235.897908
 11
1075.161905
 21
234.204690
  0
ARC
  8
TENKA
  6
PHANTOM2
 10
1024.091151
 20
152.789876
 40
98.105981
 50
57.900335
 51
122.099665
  0
LINE
  8
TENKA
  6
PHANTOM2
 10
1076.224045
 20
69.681844
 11
1075.161905
 21
71.375062
  0
ARC
  8
TENKA
  6
PHANTOM2
 10
1024.091151
 20
152.789876
 40
98.105981
 50
237.900335
 51
302.099665
  0
ARC
  8
TENKA
  6
PHANTOM2
 10
1024.091151
 20
152.789876
 40
116.894019
 50
57.900335
 51
122.099665
  0
LINE
  8
TENKA
  6
PHANTOM2
 10
1087.270028
 20
253.506943
 11
1086.207888
 21
251.813725
  0
LINE
  8
TENKA
  6
PHANTOM2
 10
1086.207888
 20
53.766027
 11
1087.270028
 21
52.072809
  0
ARC
  8
TENKA
  6
PHANTOM2
 10
1024.091151
 20
152.789876
 40
116.894019
 50
237.900335
 51
302.099665
  0
LINE
  8
TENKA
  6
PHANTOM2
 10
960.912275
 20
253.506943
 11
961.974415
 21
251.813725
  0
LINE
  8
TENKA
  6
PHANTOM2
 10
971.958258
 20
235.897908
 11
973.020398
 21
234.204690
  0
ARC
  8
TENKA
  6
PHANTOM2
 10
966.966336
 20
243.855817
 40
9.394019
 50
122.099665
 51
302.099665
  0
LINE
  8
TENKA
  6
PHANTOM2
 10
960.912275
 20
52.072809
 11
961.974415
 21
53.766027
  0
ARC
  8
TENKA
  6
PHANTOM2
 10
966.966336
 20
61.723936
 40
9.394019
 50
57.900335
 51
237.900335
  0
LINE
  8
TENKA
  6
PHANTOM2
 10
973.020398
 20
71.375062
 11
971.958258
 21
69.681844
  0
ARC
  8
TENKA
  6
PHANTOM2
 10
933.025211
 20
95.665061
 40
9.394019
 50
212.099665
 51
32.099665
  0
ARC
  8
TENKA
  6
PHANTOM2
 10
933.025211
 20
209.914691
 40
9.394019
 50
327.900335
 51
147.900335
  0
LINE
  8
TENKA
  6
PHANTOM2
 10
942.676337
 20
203.860630
 11
940.983119
 21
204.922769
  0
ARC
  8
TENKA
  6
PHANTOM2
 10
1024.091151
 20
152.789876
 40
98.105981
 50
147.900335
 51
212.099665
  0
LINE
  8
TENKA
  6
PHANTOM2
 10
942.676337
 20
101.719123
 11
940.983119
 21
100.656983
  0
LINE
  8
TENKA
  6
PHANTOM2
 10
925.067302
 20
214.906613
 11
923.374085
 21
215.968753
  0
LINE
  8
TENKA
  6
PHANTOM2
 10
925.067302
 20
90.673140
 11
923.374085
 21
89.611000
  0
ARC
  8
TENKA
  6
PHANTOM2
 10
1024.091151
 20
152.789876
 40
116.894019
 50
147.900335
 51
212.099665
  0
ARC
  8
TENKA
  6
PHANTOM2
 10
1024.091151
 20
152.789876
 40
118.892800
 50
327.900335
 51
32.099665
  0
ARC
  8
TENKA
  6
PHANTOM2
 10
1024.091151
 20
152.789876
 40
96.107200
 50
327.900335
 51
32.099665
  0
LINE
  8
TENKA
  6
PHANTOM2
 10
1124.808218
 20
89.611000
 11
1124.899030
 21
89.554034
  0
ARC
  8
TENKA
  6
PHANTOM2
 10
1115.157092
 20
95.665061
 40
11.392800
 50
147.900335
 51
327.900335
  0
LINE
  8
TENKA
  6
PHANTOM2
 10
1105.505965
 20
101.719123
 11
1105.415154
 21
101.776088
  0
LINE
  8
TENKA
  6
PHANTOM2
 10
1105.505965
 20
203.860630
 11
1105.415154
 21
203.803664
  0
ARC
  8
TENKA
  6
PHANTOM2
 10
1115.157092
 20
209.914691
 40
11.392800
 50
32.099665
 51
212.099665
  0
LINE
  8
TENKA
  6
PHANTOM2
 10
1124.808218
 20
215.968753
 11
1124.899030
 21
216.025718
  0
ARC
  8
TENKA
  6
PHANTOM2
 10
1081.215966
 20
61.723936
 40
11.392800
 50
302.099665
 51
122.099665
  0
ARC
  8
TENKA
  6
PHANTOM2
 10
1081.215966
 20
243.855817
 40
11.392800
 50
237.900335
 51
57.900335
  0
LINE
  8
TENKA
  6
PHANTOM2
 10
1075.161905
 20
234.204690
 11
1075.104939
 21
234.113879
  0
ARC
  8
TENKA
  6
PHANTOM2
 10
1024.091151
 20
152.789876
 40
96.107200
 50
57.900335
 51
122.099665
  0
ARC
  8
TENKA
  6
PHANTOM2
 10
1024.091151
 20
152.789876
 40
96.107200
 50
237.900335
 51
302.099665
  0
LINE
  8
TENKA
  6
PHANTOM2
 10
1075.161905
 20
71.375062
 11
1075.104939
 21
71.465873
  0
LINE
  8
TENKA
  6
PHANTOM2
 10
1087.270028
 20
52.072809
 11
1087.326993
 21
51.981998
  0
ARC
  8
TENKA
  6
PHANTOM2
 10
1024.091151
 20
152.789876
 40
118.892800
 50
237.900335
 51
302.099665
  0
ARC
  8
TENKA
  6
PHANTOM2
 10
1024.091151
 20
152.789876
 40
118.892800
 50
57.900335
 51
122.099665
  0
LINE
  8
TENKA
  6
PHANTOM2
 10
1087.270028
 20
253.506943
 11
1087.326993
 21
253.597754
  0
LINE
  8
TENKA
  6
PHANTOM2
 10
973.020398
 20
234.204690
 11
973.077363
 21
234.113879
  0
ARC
  8
TENKA
  6
PHANTOM2
 10
966.966336
 20
243.855817
 40
11.392800
 50
122.099665
 51
302.099665
  0
LINE
  8
TENKA
  6
PHANTOM2
 10
960.912275
 20
253.506943
 11
960.855310
 21
253.597754
  0
LINE
  8
TENKA
  6
PHANTOM2
 10
960.912275
 20
52.072809
 11
960.855310
 21
51.981998
  0
ARC
  8
TENKA
  6
PHANTOM2
 10
966.966336
 20
61.723936
 40
11.392800
 50
57.900335
 51
237.900335
  0
LINE
  8
TENKA
  6
PHANTOM2
 10
973.020398
 20
71.375062
 11
973.077363
 21
71.465873
  0
ARC
  8
TENKA
  6
PHANTOM2
 10
1024.091151
 20
152.789876
 40
96.107200
 50
147.900335
 51
212.099665
  0
ARC
  8
TENKA
  6
PHANTOM2
 10
933.025211
 20
209.914691
 40
11.392800
 50
327.900335
 51
147.900335
  0
LINE
  8
TENKA
  6
PHANTOM2
 10
942.676337
 20
203.860630
 11
942.767149
 21
203.803664
  0
LINE
  8
TENKA
  6
PHANTOM2
 10
942.676337
 20
101.719123
 11
942.767149
 21
101.776088
  0
ARC
  8
TENKA
  6
PHANTOM2
 10
933.025211
 20
95.665061
 40
11.392800
 50
212.099665
 51
32.099665
  0
LINE
  8
TENKA
  6
PHANTOM2
 10
923.374085
 20
89.611000
 11
923.283273
 21
89.554034
  0
ARC
  8
TENKA
  6
PHANTOM2
 10
1024.091151
 20
152.789876
 40
118.892800
 50
147.900335
 51
212.099665
  0
LINE
  8
TENKA
  6
PHANTOM2
 10
923.374085
 20
215.968753
 11
923.283273
 21
216.025718
  0
CIRCLE
  8
TENKA
  6
PHANTOM2
 10
1024.091151
 20
95.789876
 40
6.250000
  0
CIRCLE
  8
TENKA
  6
PHANTOM2
 10
1073.454599
 20
124.289876
 40
6.250000
  0
CIRCLE
  8
TENKA
  6
PHANTOM2
 10
1073.454599
 20
181.289876
 40
6.250000
  0
CIRCLE
  8
TENKA
  6
PHANTOM2
 10
974.727703
 20
124.289876
 40
6.250000
  0
CIRCLE
  8
TENKA
  6
PHANTOM2
 10
974.727703
 20
181.289876
 40
6.250000
  0
CIRCLE
  8
TENKA
  6
PHANTOM2
 10
1024.091151
 20
209.789876
 40
6.250000
  0
LINE
  8
TENKA
  6
PHANTOM2
 10
969.591151
 20
303.739876
 11
948.591151
 21
303.739876
  0
LINE
  8
TENKA
  6
PHANTOM2
 10
1200.591151
 20
27.489876
 11
1200.591151
 21
48.489876
  0
ARC
  8
TENKA
  6
PHANTOM2
 10
1039.310562
 20
299.204283
 40
4.413556
 50
99.505162
 51
119.128048
  0
ARC
  8
TENKA
  6
PHANTOM2
 10
1008.871741
 20
299.204283
 40
4.413556
 50
60.871952
 51
80.494838
  0
LINE
  8
TENKA
  6
PHANTOM2
 10
1008.381138
 20
299.131326
 11
1008.371694
 21
299.113771
  0
LINE
  8
TENKA
  6
PHANTOM2
 10
1008.371694
 20
299.113771
 11
1008.637925
 21
299.639423
  0
LINE
  8
TENKA
  6
PHANTOM2
 10
1008.637925
 20
299.639423
 11
1009.063363
 21
300.684402
  0
LINE
  8
TENKA
  6
PHANTOM2
 10
1009.063363
 20
300.684402
 11
1009.479316
 21
302.363111
  0
LINE
  8
TENKA
  6
PHANTOM2
 10
1009.479316
 20
302.363111
 11
1009.600580
 21
303.557245
  0
ARC
  8
TENKA
  6
PHANTOM2
 10
1012.466287
 20
303.487290
 40
2.866561
 50
77.755329
 51
178.601624
  0
ARC
  8
TENKA
  6
PHANTOM2
 10
1035.721100
 20
303.493756
 40
2.861327
 50
1.271409
 51
102.371638
  0
ARC
  8
TENKA
  6
PHANTOM2
 10
1048.719598
 20
303.969512
 40
10.146255
 50
182.328706
 51
208.479102
  0
ARC
  8
TENKA
  6
PHANTOM2
 10
1014.481336
 20
306.102274
 40
1.419377
 50
172.455246
 51
231.602656
  0
ARC
  8
TENKA
  6
PHANTOM2
 10
1033.700967
 20
306.102274
 40
1.419377
 50
308.397344
 51
7.544754
  0
ARC
  8
TENKA
  6
PHANTOM2
 10
1024.091151
 20
363.636793
 40
58.396772
 50
259.125637
 51
280.874363
  0
ARC
  8
TENKA
  6
PHANTOM2
 10
1013.653540
 20
302.229075
 40
2.761326
 50
91.116296
 51
162.494477
  0
ARC
  8
TENKA
  6
PHANTOM2
 10
1034.530053
 20
302.230800
 40
2.759576
 50
17.479429
 51
88.909798
  0
LINE
  8
TENKA
  6
PHANTOM2
 10
1011.020097
 20
303.059675
 11
1010.736478
 21
301.591990
  0
LINE
  8
TENKA
  6
PHANTOM2
 10
1010.736478
 20
301.591990
 11
1010.102049
 21
299.472775
  0
LINE
  8
TENKA
  6
PHANTOM2
 10
1010.102049
 20
299.472775
 11
1009.543828
 21
298.123341
  0
LINE
  8
TENKA
  6
PHANTOM2
 10
1009.543828
 20
298.123341
 11
1009.210836
 21
297.436537
  0
LINE
  8
TENKA
  6
PHANTOM2
 10
1009.210836
 20
297.436537
 11
1009.222522
 21
297.459570
  0
ARC
  8
TENKA
  6
PHANTOM2
 10
1055.318719
 20
305.799170
 40
18.362021
 50
188.580194
 51
207.011968
  0
LINE
  8
TENKA
  6
PHANTOM2
 10
1037.162205
 20
303.059675
 11
1011.020097
 21
303.059675
  0
LINE
  8
TENKA
  6
PHANTOM2
 10
847.591151
 20
-26.510124
 11
847.591151
 21
-37.010124
  0
LINE
  8
TENKA
  6
PHANTOM2
 10
847.591151
 20
-37.010124
 11
847.591151
 21
-47.510124
  0
LINE
  8
TENKA
  6
PHANTOM2
 10
1145.591151
 20
298.989876
 11
1132.591151
 21
298.989876
  0
LINE
  8
TENKA
  6
PHANTOM2
 10
915.591151
 20
298.989876
 11
902.591151
 21
298.989876
  0
LINE
  8
TENKA
  6
PHANTOM2
 10
1194.091151
 20
-7.117938
 11
1194.091151
 21
2.989876
  0
LINE
  8
TENKA
  6
PHANTOM2
 10
854.091151
 20
2.989876
 11
854.091151
 21
-7.117938
  0
LINE
  8
TENKA
  6
PHANTOM2
 10
854.091151
 20
2.989876
 11
849.091151
 21
2.989876
  0
ARC
  8
TENKA
  6
PHANTOM2
 10
1849.091151
 20
2.989876
 40
995.000000
 50
163.655801
 51
180.000000
  0
ARC
  8
TENKA
  6
PHANTOM2
 10
199.091151
 20
2.989876
 40
995.000000
 50
0.000000
 51
16.344199
  0
LINE
  8
TENKA
  6
PHANTOM2
 10
1194.091151
 20
2.989876
 11
1199.091151
 21
2.989876
  0
LINE
  8
TENKA
  6
PHANTOM2
 10
1154.091151
 20
294.489876
 11
1154.091151
 21
294.989876
  0
LINE
  8
TENKA
  6
PHANTOM2
 10
894.091151
 20
294.489876
 11
894.091151
 21
282.989876
  0
LINE
  8
TENKA
  6
PHANTOM2
 10
894.091151
 20
294.989876
 11
894.091151
 21
294.489876
  0
LINE
  8
TENKA
  6
PHANTOM2
 10
1154.091151
 20
294.489876
 11
1154.091151
 21
282.989876
  0
LINE
  8
TENKA
  6
PHANTOM2
 10
1030.591151
 20
298.989876
 11
1017.591151
 21
298.989876
  0
LINE
  8
TENKA
  6
PHANTOM2
 10
1099.895653
 20
-62.010124
 11
1099.895653
 21
-17.010124
  0
LINE
  8
TENKA
  6
PHANTOM2
 10
948.286649
 20
-17.010124
 11
948.286649
 21
-62.010124
  0
LINE
  8
TENKA
  6
PHANTOM2
 10
1194.091151
 20
-7.117938
 11
1195.132692
 21
-7.613049
  0
LINE
  8
TENKA
  6
PHANTOM2
 10
1195.132692
 20
-7.613049
 11
1196.526628
 21
-8.893773
  0
LINE
  8
TENKA
  6
PHANTOM2
 10
1196.526628
 20
-8.893773
 11
1197.988353
 21
-11.045663
  0
LINE
  8
TENKA
  6
PHANTOM2
 10
1197.988353
 20
-11.045663
 11
1198.627918
 21
-12.130471
  0
LINE
  8
TENKA
  6
PHANTOM2
 10
1198.627918
 20
-12.130471
 11
1198.830317
 21
-12.366915
  0
LINE
  8
TENKA
  6
PHANTOM2
 10
1198.830317
 20
-12.366915
 11
1198.910079
 21
-12.403865
  0
LINE
  8
TENKA
  6
PHANTOM2
 10
1198.910079
 20
-12.403865
 11
1199.024199
 21
-12.313245
  0
LINE
  8
TENKA
  6
PHANTOM2
 10
1199.024199
 20
-12.313245
 11
1199.063277
 21
-12.177212
  0
LINE
  8
TENKA
  6
PHANTOM2
 10
1199.063277
 20
-12.177212
 11
1199.091151
 21
-11.800070
  0
LINE
  8
TENKA
  6
PHANTOM2
 10
849.091151
 20
-11.800070
 11
849.126890
 21
-12.215074
  0
LINE
  8
TENKA
  6
PHANTOM2
 10
849.126890
 20
-12.215074
 11
849.224575
 21
-12.395690
  0
LINE
  8
TENKA
  6
PHANTOM2
 10
849.224575
 20
-12.395690
 11
849.307638
 21
-12.393680
  0
LINE
  8
TENKA
  6
PHANTOM2
 10
849.307638
 20
-12.393680
 11
849.497151
 21
-12.210374
  0
LINE
  8
TENKA
  6
PHANTOM2
 10
849.497151
 20
-12.210374
 11
849.626160
 21
-12.021510
  0
LINE
  8
TENKA
  6
PHANTOM2
 10
849.626160
 20
-12.021510
 11
850.191379
 21
-11.050119
  0
LINE
  8
TENKA
  6
PHANTOM2
 10
850.191379
 20
-11.050119
 11
851.370808
 21
-9.246747
  0
LINE
  8
TENKA
  6
PHANTOM2
 10
851.370808
 20
-9.246747
 11
852.621199
 21
-7.930178
  0
LINE
  8
TENKA
  6
PHANTOM2
 10
852.621199
 20
-7.930178
 11
853.649437
 21
-7.280034
  0
LINE
  8
TENKA
  6
PHANTOM2
 10
853.649437
 20
-7.280034
 11
854.091151
 21
-7.117938
  0
LINE
  8
TENKA
  6
PHANTOM2
 10
1194.091151
 20
-7.117938
 11
1193.383868
 21
-12.064031
  0
ARC
  8
TENKA
  6
PHANTOM2
 10
1192.575329
 20
-17.719937
 40
10.709813
 50
81.863273
 51
90.001630
  0
LINE
  8
TENKA
  6
PHANTOM2
 10
1192.575024
 20
-7.010124
 11
1192.575024
 21
-12.010124
  0
LINE
  8
TENKA
  6
PHANTOM2
 10
1110.049919
 20
-7.010124
 11
1192.575024
 21
-7.010124
  0
LINE
  8
TENKA
  6
PHANTOM2
 10
1099.895653
 20
-17.010124
 11
1104.819692
 21
-17.010124
  0
LINE
  8
TENKA
  6
PHANTOM2
 10
1110.049919
 20
-7.010124
 11
1110.049919
 21
-12.010124
  0
ARC
  8
TENKA
  6
PHANTOM2
 10
1109.973372
 20
-17.087852
 40
10.078019
 50
89.564808
 51
179.558095
  0
LINE
  8
TENKA
  6
PHANTOM2
 10
1080.591151
 20
294.489876
 11
1080.591151
 21
294.989876
  0
LINE
  8
TENKA
  6
PHANTOM2
 10
1080.591151
 20
294.489876
 11
1080.591151
 21
282.989876
  0
LINE
  8
TENKA
  6
PHANTOM2
 10
967.591151
 20
294.989876
 11
967.591151
 21
294.489876
  0
LINE
  8
TENKA
  6
PHANTOM2
 10
967.591151
 20
294.489876
 11
967.591151
 21
282.989876
  0
LINE
  8
TENKA
  6
PHANTOM2
 10
948.286649
 20
-17.010124
 11
943.362611
 21
-17.010124
  0
ARC
  8
TENKA
  6
PHANTOM2
 10
938.208930
 20
-17.087852
 40
10.078019
 50
0.441905
 51
90.435192
  0
LINE
  8
TENKA
  6
PHANTOM2
 10
854.091151
 20
-7.117938
 11
854.798434
 21
-12.064031
  0
ARC
  8
TENKA
  6
PHANTOM2
 10
855.607156
 20
-17.722506
 40
10.712382
 50
89.999347
 51
98.135750
  0
LINE
  8
TENKA
  6
PHANTOM2
 10
855.607278
 20
-7.010124
 11
855.607278
 21
-12.010124
  0
LINE
  8
TENKA
  6
PHANTOM2
 10
938.132383
 20
-7.010124
 11
938.132383
 21
-12.010124
  0
LINE
  8
TENKA
  6
PHANTOM2
 10
855.607278
 20
-7.010124
 11
938.132383
 21
-7.010124
  0
CIRCLE
  8
TENKA
  6
PHANTOM2
 10
1024.091151
 20
152.789876
 40
139.648355
  0
CIRCLE
  8
TENKA
  6
PHANTOM2
 10
1024.091151
 20
152.789876
 40
137.649573
  0
ARC
  8
TENKA
  6
PHANTOM2
 10
1139.579941
 20
104.963739
 40
8.000000
 50
245.670832
 51
360.000000
  0
ARC
  8
TENKA
  6
PHANTOM2
 10
1139.579941
 20
104.963739
 40
8.000000
 50
0.000000
 51
69.338388
  0
ARC
  8
TENKA
  6
PHANTOM2
 10
1139.572244
 20
200.634597
 40
8.000000
 50
290.670832
 51
360.000000
  0
ARC
  8
TENKA
  6
PHANTOM2
 10
1139.572244
 20
200.634597
 40
8.000000
 50
0.000000
 51
114.338388
  0
ARC
  8
TENKA
  6
PHANTOM2
 10
1071.926580
 20
268.274818
 40
8.000000
 50
335.666222
 51
360.000000
  0
ARC
  8
TENKA
  6
PHANTOM2
 10
1071.926580
 20
268.274818
 40
8.000000
 50
0.000000
 51
159.333778
  0
ARC
  8
TENKA
  6
PHANTOM2
 10
1071.926580
 20
37.304935
 40
8.000000
 50
200.666222
 51
360.000000
  0
ARC
  8
TENKA
  6
PHANTOM2
 10
1071.926580
 20
37.304935
 40
8.000000
 50
0.000000
 51
24.333778
  0
ARC
  8
TENKA
  6
PHANTOM2
 10
976.255722
 20
37.304935
 40
8.000000
 50
155.666222
 51
339.333778
  0
ARC
  8
TENKA
  6
PHANTOM2
 10
976.255722
 20
268.274818
 40
8.000000
 50
20.666222
 51
204.333778
  0
ARC
  8
TENKA
  6
PHANTOM2
 10
908.610059
 20
104.945156
 40
8.000000
 50
110.670832
 51
294.338388
  0
ARC
  8
TENKA
  6
PHANTOM2
 10
908.602361
 20
200.616014
 40
8.000000
 50
65.670832
 51
249.338388
  0
LINE
  8
TENKA
  6
PHANTOM2
 10
1104.819692
 20
-17.010124
 11
1104.819692
 21
-62.010124
  0
ARC
  8
TENKA
  6
PHANTOM2
 10
1109.937339
 20
-17.127888
 40
5.119002
 50
88.739816
 51
178.681780
  0
LINE
  8
TENKA
  6
PHANTOM2
 10
1116.410807
 20
-17.010124
 11
1104.819692
 21
-17.010124
  0
LINE
  8
TENKA
  6
PHANTOM2
 10
943.362611
 20
-62.010124
 11
943.362611
 21
-17.010124
  0
LINE
  8
TENKA
  6
PHANTOM2
 10
943.362611
 20
-17.010124
 11
931.771495
 21
-17.010124
  0
ARC
  8
TENKA
  6
PHANTOM2
 10
938.231087
 20
-17.142403
 40
5.133228
 50
1.476629
 51
91.101775
  0
LINE
  8
TENKA
  6
PHANTOM2
 10
1198.920780
 20
-62.010124
 11
1198.920780
 21
-17.010124
  0
ARC
  8
TENKA
  6
PHANTOM2
 10
1190.079973
 20
-27.046480
 40
15.342409
 50
54.031673
 51
77.564289
  0
LINE
  8
TENKA
  6
PHANTOM2
 10
1198.920780
 20
-17.010124
 11
1180.255905
 21
-17.010124
  0
ARC
  8
TENKA
  6
PHANTOM2
 10
858.523322
 20
-27.983141
 40
16.349093
 50
103.169614
 51
125.234424
  0
LINE
  8
TENKA
  6
PHANTOM2
 10
867.926397
 20
-17.010124
 11
849.261522
 21
-17.010124
  0
LINE
  8
TENKA
  6
PHANTOM2
 10
849.261522
 20
-17.010124
 11
849.261522
 21
-62.010124
  0
ARC
  8
TENKA
  6
PHANTOM2
 10
1175.339588
 20
-16.926390
 40
4.917030
 50
359.024240
 51
88.989815
  0
LINE
  8
TENKA
  6
PHANTOM2
 10
1180.255905
 20
-17.010124
 11
1180.255905
 21
-62.010124
  0
LINE
  8
TENKA
  6
PHANTOM2
 10
1175.426276
 20
-17.010124
 11
1180.255905
 21
-17.010124
  0
LINE
  8
TENKA
  6
PHANTOM2
 10
1175.426276
 20
-62.010124
 11
1175.426276
 21
-17.010124
  0
LINE
  8
TENKA
  6
PHANTOM2
 10
1121.334846
 20
-17.010124
 11
1121.334846
 21
-62.010124
  0
LINE
  8
TENKA
  6
PHANTOM2
 10
1116.410807
 20
-62.010124
 11
1116.410807
 21
-17.010124
  0
ARC
  8
TENKA
  6
PHANTOM2
 10
1121.373120
 20
-16.972432
 40
4.962455
 50
90.441905
 51
180.435192
  0
LINE
  8
TENKA
  6
PHANTOM2
 10
1121.334846
 20
-17.010124
 11
1116.410807
 21
-17.010124
  0
LINE
  8
TENKA
  6
PHANTOM2
 10
1175.426276
 20
-17.010124
 11
1175.426276
 21
-12.010124
  0
LINE
  8
TENKA
  6
PHANTOM2
 10
1121.334846
 20
-17.010124
 11
1121.334846
 21
-12.010124
  0
LINE
  8
TENKA
  6
PHANTOM2
 10
1175.426276
 20
-17.010124
 11
1121.334846
 21
-17.010124
  0
LINE
  8
TENKA
  6
PHANTOM2
 10
931.771495
 20
-17.010124
 11
931.771495
 21
-62.010124
  0
ARC
  8
TENKA
  6
PHANTOM2
 10
926.809183
 20
-16.972432
 40
4.962455
 50
359.564808
 51
89.558095
  0
LINE
  8
TENKA
  6
PHANTOM2
 10
931.771495
 20
-17.010124
 11
926.847457
 21
-17.010124
  0
LINE
  8
TENKA
  6
PHANTOM2
 10
867.926397
 20
-62.010124
 11
867.926397
 21
-17.010124
  0
LINE
  8
TENKA
  6
PHANTOM2
 10
926.847457
 20
-62.010124
 11
926.847457
 21
-17.010124
  0
LINE
  8
TENKA
  6
PHANTOM2
 10
872.756026
 20
-17.010124
 11
872.756026
 21
-62.010124
  0
ARC
  8
TENKA
  6
PHANTOM2
 10
872.842714
 20
-16.926390
 40
4.917030
 50
91.010185
 51
180.975761
  0
LINE
  8
TENKA
  6
PHANTOM2
 10
867.926397
 20
-17.010124
 11
872.756026
 21
-17.010124
  0
LINE
  8
TENKA
  6
PHANTOM2
 10
872.756026
 20
-12.010124
 11
872.756026
 21
-17.010124
  0
LINE
  8
TENKA
  6
PHANTOM2
 10
926.847457
 20
-17.010124
 11
872.756026
 21
-17.010124
  0
LINE
  8
TENKA
  6
PHANTOM2
 10
926.847457
 20
-12.010124
 11
926.847457
 21
-17.010124
  0
CIRCLE
  8
TENKA
  6
PHANTOM2
 10
1024.091151
 20
152.789876
 40
26.000000
  0
CIRCLE
  8
OBRYS
 10
1024.091151
 20
152.789876
 40
40.000000
  0
CIRCLE
  8
OBRYS
 10
1073.454599
 20
124.289876
 40
7.500000
  0
CIRCLE
  8
OBRYS
 10
1024.091151
 20
95.789876
 40
7.500000
  0
CIRCLE
  8
OBRYS
 10
974.727703
 20
124.289876
 40
7.500000
  0
CIRCLE
  8
OBRYS
 10
1073.454599
 20
181.289876
 40
7.500000
  0
CIRCLE
  8
OBRYS
 10
1024.091151
 20
209.789876
 40
7.500000
  0
CIRCLE
  8
OBRYS
 10
974.727703
 20
181.289876
 40
7.500000
  0
CIRCLE
  8
OBRYS
 10
1100.105130
 20
76.775897
 40
7.500000
  0
CIRCLE
  8
OBRYS
 10
948.077172
 20
76.775897
 40
7.500000
  0
CIRCLE
  8
OBRYS
 10
1100.105130
 20
228.803855
 40
7.500000
  0
CIRCLE
  8
OBRYS
 10
948.077172
 20
228.803855
 40
7.500000
  0
ARC
  8
OBRYS
 10
1024.091151
 20
152.789876
 40
119.000000
 50
57.900335
 51
122.099665
  0
ARC
  8
OBRYS
 10
1081.215966
 20
243.855817
 40
11.500000
 50
237.900335
 51
57.900335
  0
ARC
  8
OBRYS
 10
1024.091151
 20
152.789876
 40
96.000000
 50
57.900335
 51
122.099665
  0
ARC
  8
OBRYS
 10
966.966336
 20
243.855817
 40
11.500000
 50
122.099665
 51
302.099665
  0
ARC
  8
OBRYS
 10
1024.091151
 20
152.789876
 40
96.000000
 50
327.900335
 51
32.099665
  0
ARC
  8
OBRYS
 10
1115.157092
 20
209.914691
 40
11.500000
 50
32.099665
 51
212.099665
  0
ARC
  8
OBRYS
 10
1024.091151
 20
152.789876
 40
119.000000
 50
327.900335
 51
32.099665
  0
ARC
  8
OBRYS
 10
1115.157092
 20
95.665061
 40
11.500000
 50
147.900335
 51
327.900335
  0
ARC
  8
OBRYS
 10
966.966336
 20
61.723936
 40
11.500000
 50
57.900335
 51
237.900335
  0
ARC
  8
OBRYS
 10
1024.091151
 20
152.789876
 40
96.000000
 50
237.900335
 51
302.099665
  0
ARC
  8
OBRYS
 10
1081.215966
 20
61.723936
 40
11.500000
 50
302.099665
 51
122.099665
  0
ARC
  8
OBRYS
 10
1024.091151
 20
152.789876
 40
119.000000
 50
237.900335
 51
302.099665
  0
ARC
  8
OBRYS
 10
1024.091151
 20
152.789876
 40
96.000000
 50
147.900335
 51
212.099665
  0
ARC
  8
OBRYS
 10
933.025211
 20
95.665061
 40
11.500000
 50
212.099665
 51
32.099665
  0
ARC
  8
OBRYS
 10
933.025211
 20
209.914691
 40
11.500000
 50
327.900335
 51
147.900335
  0
CIRCLE
  8
OBRYS
 10
1024.091151
 20
152.789876
 40
125.000000
  0
CIRCLE
  8
OBRYS
 10
1024.091151
 20
152.789876
 40
90.000000
  0
ARC
  8
OBRYS
 10
1024.091151
 20
152.789876
 40
119.000000
 50
147.900335
 51
212.099665
  0
CIRCLE
  8
OBRYS
 10
1024.091151
 20
95.789876
 40
2.000000
  0
CIRCLE
  8
OBRYS
 10
1024.091151
 20
95.789876
 40
6.500000
  0
LINE
  8
OBRYS
 10
1025.378545
 20
99.005870
 11
1027.519981
 21
96.282958
  0
ARC
  8
OBRYS
 10
1024.091151
 20
95.789876
 40
3.464102
 50
8.183300
 51
68.183300
  0
LINE
  8
OBRYS
 10
1022.803758
 20
92.573882
 11
1020.662322
 21
95.296794
  0
ARC
  8
OBRYS
 10
1024.091151
 20
95.789876
 40
3.464102
 50
188.183300
 51
248.183300
  0
LINE
  8
OBRYS
 10
1027.519981
 20
96.282958
 11
1026.232587
 21
93.066964
  0
ARC
  8
OBRYS
 10
1024.091151
 20
95.789876
 40
3.464102
 50
308.183300
 51
8.183300
  0
LINE
  8
OBRYS
 10
1020.662322
 20
95.296794
 11
1021.949715
 21
98.512789
  0
ARC
  8
OBRYS
 10
1024.091151
 20
95.789876
 40
3.464102
 50
128.183300
 51
188.183300
  0
LINE
  8
OBRYS
 10
1026.232587
 20
93.066964
 11
1022.803758
 21
92.573882
  0
ARC
  8
OBRYS
 10
1024.091151
 20
95.789876
 40
3.464102
 50
248.183300
 51
308.183300
  0
LINE
  8
OBRYS
 10
1021.949715
 20
98.512789
 11
1025.378545
 21
99.005870
  0
ARC
  8
OBRYS
 10
1024.091151
 20
95.789876
 40
3.464102
 50
68.183300
 51
128.183300
  0
CIRCLE
  8
OBRYS
 10
1073.454599
 20
124.289876
 40
2.000000
  0
CIRCLE
  8
OBRYS
 10
1073.454599
 20
124.289876
 40
6.500000
  0
LINE
  8
OBRYS
 10
1071.313163
 20
127.012789
 11
1074.741993
 21
127.505870
  0
ARC
  8
OBRYS
 10
1073.454599
 20
124.289876
 40
3.464102
 50
68.183300
 51
128.183300
  0
LINE
  8
OBRYS
 10
1075.596035
 20
121.566964
 11
1072.167206
 21
121.073882
  0
ARC
  8
OBRYS
 10
1073.454599
 20
124.289876
 40
3.464102
 50
248.183300
 51
308.183300
  0
LINE
  8
OBRYS
 10
1076.883429
 20
124.782958
 11
1075.596035
 21
121.566964
  0
ARC
  8
OBRYS
 10
1073.454599
 20
124.289876
 40
3.464102
 50
308.183300
 51
8.183300
  0
LINE
  8
OBRYS
 10
1074.741993
 20
127.505870
 11
1076.883429
 21
124.782958
  0
ARC
  8
OBRYS
 10
1073.454599
 20
124.289876
 40
3.464102
 50
8.183300
 51
68.183300
  0
LINE
  8
OBRYS
 10
1070.025770
 20
123.796794
 11
1071.313163
 21
127.012789
  0
ARC
  8
OBRYS
 10
1073.454599
 20
124.289876
 40
3.464102
 50
128.183300
 51
188.183300
  0
LINE
  8
OBRYS
 10
1072.167206
 20
121.073882
 11
1070.025770
 21
123.796794
  0
ARC
  8
OBRYS
 10
1073.454599
 20
124.289876
 40
3.464102
 50
188.183300
 51
248.183300
  0
CIRCLE
  8
OBRYS
 10
1073.454599
 20
181.289876
 40
2.000000
  0
CIRCLE
  8
OBRYS
 10
1073.454599
 20
181.289876
 40
6.500000
  0
LINE
  8
OBRYS
 10
1076.883429
 20
181.782958
 11
1075.596035
 21
178.566964
  0
ARC
  8
OBRYS
 10
1073.454599
 20
181.289876
 40
3.464102
 50
308.183300
 51
8.183300
  0
LINE
  8
OBRYS
 10
1070.025770
 20
180.796794
 11
1071.313163
 21
184.012789
  0
ARC
  8
OBRYS
 10
1073.454599
 20
181.289876
 40
3.464102
 50
128.183300
 51
188.183300
  0
LINE
  8
OBRYS
 10
1074.741993
 20
184.505870
 11
1076.883429
 21
181.782958
  0
ARC
  8
OBRYS
 10
1073.454599
 20
181.289876
 40
3.464102
 50
8.183300
 51
68.183300
  0
LINE
  8
OBRYS
 10
1072.167206
 20
178.073882
 11
1070.025770
 21
180.796794
  0
ARC
  8
OBRYS
 10
1073.454599
 20
181.289876
 40
3.464102
 50
188.183300
 51
248.183300
  0
LINE
  8
OBRYS
 10
1071.313163
 20
184.012789
 11
1074.741993
 21
184.505870
  0
ARC
  8
OBRYS
 10
1073.454599
 20
181.289876
 40
3.464102
 50
68.183300
 51
128.183300
  0
LINE
  8
OBRYS
 10
1075.596035
 20
178.566964
 11
1072.167206
 21
178.073882
  0
ARC
  8
OBRYS
 10
1073.454599
 20
181.289876
 40
3.464102
 50
248.183300
 51
308.183300
  0
CIRCLE
  8
OBRYS
 10
974.727703
 20
124.289876
 40
2.000000
  0
CIRCLE
  8
OBRYS
 10
974.727703
 20
124.289876
 40
6.500000
  0
LINE
  8
OBRYS
 10
978.156533
 20
124.782958
 11
976.869139
 21
121.566964
  0
ARC
  8
OBRYS
 10
974.727703
 20
124.289876
 40
3.464102
 50
308.183300
 51
8.183300
  0
LINE
  8
OBRYS
 10
971.298874
 20
123.796794
 11
972.586267
 21
127.012789
  0
ARC
  8
OBRYS
 10
974.727703
 20
124.289876
 40
3.464102
 50
128.183300
 51
188.183300
  0
LINE
  8
OBRYS
 10
976.015097
 20
127.505870
 11
978.156533
 21
124.782958
  0
ARC
  8
OBRYS
 10
974.727703
 20
124.289876
 40
3.464102
 50
8.183300
 51
68.183300
  0
LINE
  8
OBRYS
 10
976.869139
 20
121.566964
 11
973.440310
 21
121.073882
  0
ARC
  8
OBRYS
 10
974.727703
 20
124.289876
 40
3.464102
 50
248.183300
 51
308.183300
  0
LINE
  8
OBRYS
 10
972.586267
 20
127.012789
 11
976.015097
 21
127.505870
  0
ARC
  8
OBRYS
 10
974.727703
 20
124.289876
 40
3.464102
 50
68.183300
 51
128.183300
  0
LINE
  8
OBRYS
 10
973.440310
 20
121.073882
 11
971.298874
 21
123.796794
  0
ARC
  8
OBRYS
 10
974.727703
 20
124.289876
 40
3.464102
 50
188.183300
 51
248.183300
  0
CIRCLE
  8
OBRYS
 10
974.727703
 20
181.289876
 40
2.000000
  0
CIRCLE
  8
OBRYS
 10
974.727703
 20
181.289876
 40
6.500000
  0
LINE
  8
OBRYS
 10
976.869139
 20
178.566964
 11
973.440310
 21
178.073882
  0
ARC
  8
OBRYS
 10
974.727703
 20
181.289876
 40
3.464102
 50
248.183300
 51
308.183300
  0
LINE
  8
OBRYS
 10
972.586267
 20
184.012789
 11
976.015097
 21
184.505870
  0
ARC
  8
OBRYS
 10
974.727703
 20
181.289876
 40
3.464102
 50
68.183300
 51
128.183300
  0
LINE
  8
OBRYS
 10
978.156533
 20
181.782958
 11
976.869139
 21
178.566964
  0
ARC
  8
OBRYS
 10
974.727703
 20
181.289876
 40
3.464102
 50
308.183300
 51
8.183300
  0
LINE
  8
OBRYS
 10
976.015097
 20
184.505870
 11
978.156533
 21
181.782958
  0
ARC
  8
OBRYS
 10
974.727703
 20
181.289876
 40
3.464102
 50
8.183300
 51
68.183300
  0
LINE
  8
OBRYS
 10
973.440310
 20
178.073882
 11
971.298874
 21
180.796794
  0
ARC
  8
OBRYS
 10
974.727703
 20
181.289876
 40
3.464102
 50
188.183300
 51
248.183300
  0
LINE
  8
OBRYS
 10
971.298874
 20
180.796794
 11
972.586267
 21
184.012789
  0
ARC
  8
OBRYS
 10
974.727703
 20
181.289876
 40
3.464102
 50
128.183300
 51
188.183300
  0
CIRCLE
  8
OBRYS
 10
1024.091151
 20
209.789876
 40
2.000000
  0
CIRCLE
  8
OBRYS
 10
1024.091151
 20
209.789876
 40
6.500000
  0
LINE
  8
OBRYS
 10
1025.378545
 20
213.005870
 11
1027.519981
 21
210.282958
  0
ARC
  8
OBRYS
 10
1024.091151
 20
209.789876
 40
3.464102
 50
8.183300
 51
68.183300
  0
LINE
  8
OBRYS
 10
1022.803758
 20
206.573882
 11
1020.662322
 21
209.296794
  0
ARC
  8
OBRYS
 10
1024.091151
 20
209.789876
 40
3.464102
 50
188.183300
 51
248.183300
  0
LINE
  8
OBRYS
 10
1027.519981
 20
210.282958
 11
1026.232587
 21
207.066964
  0
ARC
  8
OBRYS
 10
1024.091151
 20
209.789876
 40
3.464102
 50
308.183300
 51
8.183300
  0
LINE
  8
OBRYS
 10
1020.662322
 20
209.296794
 11
1021.949715
 21
212.512789
  0
ARC
  8
OBRYS
 10
1024.091151
 20
209.789876
 40
3.464102
 50
128.183300
 51
188.183300
  0
LINE
  8
OBRYS
 10
1026.232587
 20
207.066964
 11
1022.803758
 21
206.573882
  0
ARC
  8
OBRYS
 10
1024.091151
 20
209.789876
 40
3.464102
 50
248.183300
 51
308.183300
  0
LINE
  8
OBRYS
 10
1021.949715
 20
212.512789
 11
1025.378545
 21
213.005870
  0
ARC
  8
OBRYS
 10
1024.091151
 20
209.789876
 40
3.464102
 50
68.183300
 51
128.183300
  0
LINE
  8
OBRYS
 10
949.341152
 20
304.489876
 11
968.841151
 21
304.489876
  0
LINE
  8
OBRYS
 10
946.591151
 20
296.489876
 11
971.591151
 21
296.489876
  0
LINE
  8
OBRYS
 10
1199.091151
 20
-62.010124
 11
1199.091151
 21
-60.670378
  0
LINE
  8
OBRYS
 10
849.091151
 20
-62.010124
 11
849.091151
 21
-60.670378
  0
LINE
  8
OBRYS
 10
1199.091151
 20
-52.010124
 11
1199.091151
 21
-60.670378
  0
LINE
  8
OBRYS
 10
849.091151
 20
-60.670378
 11
849.091151
 21
-52.010124
  0
LINE
  8
OBRYS
 10
1201.591151
 20
47.489876
 11
1201.591151
 21
28.489876
  0
LINE
  8
OBRYS
 10
1198.591151
 20
50.489876
 11
1198.591151
 21
34.608700
  0
LINE
  8
OBRYS
 10
1013.599744
 20
304.989876
 11
1034.582558
 21
304.989876
  0
LINE
  8
OBRYS
 10
846.591151
 20
-46.510124
 11
846.591151
 21
-37.010124
  0
LINE
  8
OBRYS
 10
846.591151
 20
-37.010124
 11
846.591151
 21
-27.510124
  0
LINE
  8
OBRYS
 10
1133.591152
 20
299.989876
 11
1144.591151
 21
299.989876
  0
LINE
  8
OBRYS
 10
903.591152
 20
299.989876
 11
914.591151
 21
299.989876
  0
LINE
  8
OBRYS
 10
1199.091151
 20
2.989876
 11
1199.091151
 21
-11.800070
  0
LINE
  8
OBRYS
 10
1099.895653
 20
-62.010124
 11
948.286649
 21
-62.010124
  0
LINE
  8
OBRYS
 10
849.091151
 20
-11.800070
 11
849.091151
 21
2.989876
  0
ARC
  8
OBRYS
 10
1849.091151
 20
2.989876
 40
1000.000000
 50
163.739795
 51
180.000000
  0
ARC
  8
OBRYS
 10
199.091151
 20
2.989876
 40
1000.000000
 50
0.000000
 51
16.260205
  0
LINE
  8
OBRYS
 10
1199.091151
 20
-62.010124
 11
1198.920780
 21
-62.010124
  0
LINE
  8
OBRYS
 10
1199.091151
 20
-15.716029
 11
1199.091151
 21
-62.010124
  0
LINE
  8
OBRYS
 10
849.261522
 20
-62.010124
 11
849.091151
 21
-62.010124
  0
LINE
  8
OBRYS
 10
849.091151
 20
-62.010124
 11
849.091151
 21
-15.716029
  0
LINE
  8
OBRYS
 10
1154.091151
 20
282.989876
 11
1159.091151
 21
282.989876
  0
LINE
  8
OBRYS
 10
1159.091151
 20
294.489876
 11
1159.091151
 21
282.989876
  0
LINE
  8
OBRYS
 10
1154.091151
 20
294.989876
 11
1158.591151
 21
294.989876
  0
LINE
  8
OBRYS
 10
1159.091151
 20
294.489876
 11
1158.591151
 21
294.989876
  0
LINE
  8
OBRYS
 10
1159.091151
 20
294.489876
 11
1154.091151
 21
294.489876
  0
LINE
  8
OBRYS
 10
1080.591151
 20
294.989876
 11
1154.091151
 21
294.989876
  0
LINE
  8
OBRYS
 10
894.091151
 20
294.989876
 11
967.591151
 21
294.989876
  0
LINE
  8
OBRYS
 10
889.091151
 20
282.989876
 11
894.091151
 21
282.989876
  0
LINE
  8
OBRYS
 10
889.091151
 20
294.489876
 11
889.091151
 21
282.989876
  0
LINE
  8
OBRYS
 10
894.091151
 20
282.989876
 11
967.416995
 21
282.989876
  0
LINE
  8
OBRYS
 10
967.591151
 20
294.489876
 11
894.091151
 21
294.489876
  0
LINE
  8
OBRYS
 10
889.591151
 20
294.989876
 11
894.091151
 21
294.989876
  0
LINE
  8
OBRYS
 10
889.591151
 20
294.989876
 11
889.091151
 21
294.489876
  0
LINE
  8
OBRYS
 10
894.091151
 20
294.489876
 11
889.091151
 21
294.489876
  0
LINE
  8
OBRYS
 10
1080.765308
 20
282.989876
 11
1154.091151
 21
282.989876
  0
LINE
  8
OBRYS
 10
1154.091151
 20
294.489876
 11
1080.591151
 21
294.489876
  0
LINE
  8
OBRYS
 10
1018.591152
 20
299.989876
 11
1029.591151
 21
299.989876
  0
LINE
  8
OBRYS
 10
1104.819692
 20
-62.010124
 11
1099.895653
 21
-62.010124
  0
LINE
  8
OBRYS
 10
948.286649
 20
-62.010124
 11
943.362611
 21
-62.010124
  0
LINE
  8
OBRYS
 10
1199.091151
 20
-11.800070
 11
1199.091151
 21
-14.629227
  0
LINE
  8
OBRYS
 10
849.091151
 20
-14.629227
 11
849.091151
 21
-11.800070
  0
LINE
  8
OBRYS
 10
1076.119015
 20
294.989876
 11
1080.591151
 21
294.989876
  0
LINE
  8
OBRYS
 10
1080.591151
 20
294.489876
 11
1076.591151
 21
294.489876
  0
LINE
  8
OBRYS
 10
1076.591151
 20
282.989876
 11
1077.609198
 21
282.989876
  0
LINE
  8
OBRYS
 10
971.591151
 20
282.989876
 11
972.632819
 21
282.989876
  0
LINE
  8
OBRYS
 10
1075.549484
 20
282.989876
 11
1076.591151
 21
282.989876
  0
LINE
  8
OBRYS
 10
1076.591151
 20
294.489876
 11
1076.591151
 21
282.989876
  0
LINE
  8
OBRYS
 10
1076.591151
 20
294.489876
 11
971.591151
 21
294.489876
  0
LINE
  8
OBRYS
 10
1076.591151
 20
294.489876
 11
1076.119015
 21
294.989876
  0
LINE
  8
OBRYS
 10
972.063287
 20
294.989876
 11
1076.119015
 21
294.989876
  0
LINE
  8
OBRYS
 10
972.063287
 20
294.989876
 11
971.591151
 21
294.489876
  0
LINE
  8
OBRYS
 10
967.591151
 20
294.989876
 11
972.063287
 21
294.989876
  0
LINE
  8
OBRYS
 10
971.591151
 20
294.489876
 11
971.591151
 21
282.989876
  0
LINE
  8
OBRYS
 10
971.591151
 20
294.489876
 11
967.591151
 21
294.489876
  0
LINE
  8
OBRYS
 10
970.573105
 20
282.989876
 11
971.591151
 21
282.989876
  0
LINE
  8
OBRYS
 10
1077.609198
 20
282.989876
 11
1080.765308
 21
282.989876
  0
LINE
  8
OBRYS
 10
967.416995
 20
282.989876
 11
970.573105
 21
282.989876
  0
ARC
  8
OBRYS
 10
1024.091151
 20
152.789876
 40
140.000000
 50
68.434815
 51
111.565185
  0
ARC
  8
OBRYS
 10
1024.091151
 20
152.789876
 40
140.000000
 50
111.565185
 51
68.434815
  0
ARC
  8
OBRYS
 10
1139.572244
 20
200.634597
 40
9.000000
 50
0.000000
 51
114.567704
  0
ARC
  8
OBRYS
 10
1139.572244
 20
200.634597
 40
9.000000
 50
290.441516
 51
360.000000
  0
ARC
  8
OBRYS
 10
1139.579941
 20
104.963739
 40
9.000000
 50
0.000000
 51
69.567704
  0
ARC
  8
OBRYS
 10
1139.579941
 20
104.963739
 40
9.000000
 50
245.441516
 51
360.000000
  0
LINE
  8
OBRYS
 10
1137.976817
 20
101.262648
 11
1139.598525
 21
100.326354
  0
LINE
  8
OBRYS
 10
1143.598525
 20
107.254558
 11
1141.064037
 21
108.717845
  0
LINE
  8
OBRYS
 10
1143.598525
 20
102.635755
 11
1143.598525
 21
107.254558
  0
LINE
  8
OBRYS
 10
1139.598525
 20
100.326354
 11
1143.598525
 21
102.635755
  0
LINE
  8
OBRYS
 10
1141.058558
 20
196.876447
 11
1142.860662
 21
197.359320
  0
LINE
  8
OBRYS
 10
1140.790110
 20
205.086726
 11
1137.970439
 21
204.331198
  0
LINE
  8
OBRYS
 10
1144.056096
 20
201.820740
 11
1140.790110
 21
205.086726
  0
LINE
  8
OBRYS
 10
1142.860662
 20
197.359320
 11
1144.056096
 21
201.820740
  0
LINE
  8
OBRYS
 10
1075.626887
 20
266.671692
 11
1076.554674
 21
268.278667
  0
LINE
  8
OBRYS
 10
1069.626471
 20
272.278667
 11
1068.171995
 21
269.759441
  0
LINE
  8
OBRYS
 10
1074.245273
 20
272.278667
 11
1069.626471
 21
272.278667
  0
LINE
  8
OBRYS
 10
1076.554674
 20
268.278667
 11
1074.245273
 21
272.278667
  0
LINE
  8
OBRYS
 10
1068.194601
 20
35.828832
 11
1068.679178
 21
34.020366
  0
LINE
  8
OBRYS
 10
1076.406584
 20
36.090918
 11
1075.649046
 21
38.918091
  0
LINE
  8
OBRYS
 10
1073.140598
 20
32.824932
 11
1076.406584
 21
36.090918
  0
LINE
  8
OBRYS
 10
1068.679178
 20
34.020366
 11
1073.140598
 21
32.824932
  0
ARC
  8
OBRYS
 10
1071.926580
 20
268.274818
 40
9.000000
 50
0.000000
 51
159.563094
  0
ARC
  8
OBRYS
 10
1071.926580
 20
268.274818
 40
9.000000
 50
335.436906
 51
360.000000
  0
ARC
  8
OBRYS
 10
1071.926580
 20
37.304935
 40
9.000000
 50
0.000000
 51
24.563094
  0
ARC
  8
OBRYS
 10
1071.926580
 20
37.304935
 40
9.000000
 50
200.436906
 51
360.000000
  0
ARC
  8
OBRYS
 10
976.255722
 20
37.304935
 40
9.000000
 50
155.436906
 51
339.563094
  0
LINE
  8
OBRYS
 10
972.578658
 20
38.897545
 11
971.646212
 21
37.282503
  0
LINE
  8
OBRYS
 10
978.574416
 20
33.282503
 11
980.034383
 21
35.811241
  0
LINE
  8
OBRYS
 10
973.955614
 20
33.282503
 11
978.574416
 21
33.282503
  0
LINE
  8
OBRYS
 10
971.646212
 20
37.282503
 11
973.955614
 21
33.282503
  0
LINE
  8
OBRYS
 10
980.000058
 20
269.755578
 11
979.521709
 21
271.540804
  0
LINE
  8
OBRYS
 10
971.794302
 20
269.470252
 11
972.545390
 21
266.667154
  0
LINE
  8
OBRYS
 10
975.060288
 20
272.736238
 11
971.794302
 21
269.470252
  0
LINE
  8
OBRYS
 10
979.521709
 20
271.540804
 11
975.060288
 21
272.736238
  0
ARC
  8
OBRYS
 10
976.255722
 20
268.274818
 40
9.000000
 50
20.436906
 51
204.563094
  0
LINE
  8
OBRYS
 10
904.602361
 20
202.925415
 11
904.602361
 21
198.306612
  0
LINE
  8
OBRYS
 10
904.602361
 20
198.306612
 11
907.115835
 21
196.855458
  0
LINE
  8
OBRYS
 10
908.602361
 20
205.234816
 11
904.602361
 21
202.925415
  0
LINE
  8
OBRYS
 10
910.202669
 20
204.310878
 11
908.602361
 21
205.234816
  0
LINE
  8
OBRYS
 10
904.144790
 20
103.740430
 11
907.410776
 21
100.474444
  0
LINE
  8
OBRYS
 10
905.340224
 20
108.201850
 11
904.144790
 21
103.740430
  0
LINE
  8
OBRYS
 10
907.131813
 20
108.681905
 11
905.340224
 21
108.201850
  0
LINE
  8
OBRYS
 10
907.410776
 20
100.474444
 11
910.221376
 21
101.227542
  0
ARC
  8
OBRYS
 10
908.610059
 20
104.945156
 40
9.000000
 50
110.441516
 51
294.567704
  0
ARC
  8
OBRYS
 10
908.602361
 20
200.616014
 40
9.000000
 50
65.441516
 51
249.567704
  0
LINE
  8
OBRYS
 10
1116.410807
 20
-62.010124
 11
1104.819692
 21
-62.010124
  0
LINE
  8
OBRYS
 10
1110.049919
 20
-12.010124
 11
1121.334846
 21
-12.010124
  0
LINE
  8
OBRYS
 10
943.362611
 20
-62.010124
 11
931.771495
 21
-62.010124
  0
LINE
  8
OBRYS
 10
926.847457
 20
-12.010124
 11
938.132383
 21
-12.010124
  0
LINE
  8
OBRYS
 10
1198.920780
 20
-62.010124
 11
1180.255905
 21
-62.010124
  0
LINE
  8
OBRYS
 10
1199.091151
 20
-14.629227
 11
1199.091151
 21
-15.716029
  0
ARC
  8
OBRYS
 10
1192.575200
 20
-18.102557
 40
6.092433
 50
82.372432
 51
90.001649
  0
LINE
  8
OBRYS
 10
1175.426276
 20
-12.010124
 11
1192.575024
 21
-12.010124
  0
ARC
  8
OBRYS
 10
1193.975714
 20
-15.700831
 40
5.115460
 50
345.170221
 51
359.829779
  0
ARC
  8
OBRYS
 10
855.606840
 20
-18.098618
 40
6.088494
 50
89.995880
 51
97.630039
  0
LINE
  8
OBRYS
 10
849.091151
 20
-15.716029
 11
849.091151
 21
-14.629227
  0
ARC
  8
OBRYS
 10
854.322466
 20
-15.685575
 40
5.231403
 50
180.333533
 51
194.666467
  0
LINE
  8
OBRYS
 10
855.607278
 20
-12.010124
 11
872.756026
 21
-12.010124
  0
LINE
  8
OBRYS
 10
867.926397
 20
-62.010124
 11
849.261522
 21
-62.010124
  0
LINE
  8
OBRYS
 10
1180.255905
 20
-62.010124
 11
1175.426276
 21
-62.010124
  0
LINE
  8
OBRYS
 10
1175.426276
 20
-62.010124
 11
1121.334846
 21
-62.010124
  0
LINE
  8
OBRYS
 10
1121.334846
 20
-62.010124
 11
1116.410807
 21
-62.010124
  0
LINE
  8
OBRYS
 10
1121.334846
 20
-12.010124
 11
1175.426276
 21
-12.010124
  0
LINE
  8
OBRYS
 10
931.771495
 20
-62.010124
 11
926.847457
 21
-62.010124
  0
LINE
  8
OBRYS
 10
872.756026
 20
-62.010124
 11
867.926397
 21
-62.010124
  0
LINE
  8
OBRYS
 10
926.847457
 20
-62.010124
 11
872.756026
 21
-62.010124
  0
LINE
  8
OBRYS
 10
872.756026
 20
-12.010124
 11
926.847457
 21
-12.010124
  0
CIRCLE
  8
OBRYS
 10
1024.091151
 20
152.789876
 40
40.000000
  0
LINE
  8
OBRYS
 10
1020.091151
 20
167.407159
 11
1020.091151
 21
166.206284
  0
LINE
  8
OBRYS
 10
1028.091151
 20
166.206284
 11
1028.091151
 21
167.407159
  0
ARC
  8
OBRYS
 10
1024.091151
 20
152.789876
 40
14.000000
 50
106.601550
 51
73.398450
  0
LINE
  8
OBRYS
 10
1028.091151
 20
167.407159
 11
1028.091151
 21
169.789876
  0
ARC
  8
OBRYS
 10
1024.091151
 20
152.789876
 40
15.154701
 50
105.304245
 51
74.695755
  0
LINE
  8
OBRYS
 10
1020.091151
 20
169.789876
 11
1020.091151
 21
167.407159
  0
LINE
  8
OBRYS
 10
1028.091151
 20
169.789876
 11
1020.091151
 21
169.789876
  0
CIRCLE
  8
OBRYS
 10
1024.091151
 20
152.789876
 40
27.500000
  0
LINE
  8
OBRYS
 10
948.591151
 20
303.739876
 11
948.591151
 21
296.489876
  0
LINE
  8
OBRYS
 10
969.591151
 20
296.489876
 11
969.591151
 21
303.739876
  0
ARC
  8
OBRYS
 10
968.841151
 20
303.739876
 40
0.750000
 50
0.000000
 51
90.000000
  0
ARC
  8
OBRYS
 10
949.341151
 20
303.739876
 40
0.750000
 50
90.000000
 51
180.000000
  0
LINE
  8
OBRYS
 10
946.591151
 20
296.489876
 11
946.591151
 21
294.989876
  0
LINE
  8
OBRYS
 10
971.591151
 20
294.989876
 11
971.591151
 21
296.489876
  0
LINE
  8
OBRYS
 10
1200.591151
 20
48.489876
 11
1198.591151
 21
48.489876
  0
LINE
  8
OBRYS
 10
1198.790981
 20
27.489876
 11
1200.591151
 21
27.489876
  0
ARC
  8
OBRYS
 10
1200.591151
 20
28.489876
 40
1.000000
 50
270.000000
 51
360.000000
  0
ARC
  8
OBRYS
 10
1200.591151
 20
47.489876
 40
1.000000
 50
0.000000
 51
90.000000
  0
LINE
  8
OBRYS
 10
1198.591151
 20
50.489876
 11
1197.962389
 21
50.489876
  0
ARC
  8
OBRYS
 10
1007.314189
 20
297.489921
 40
1.857109
 50
358.937858
 51
57.406079
  0
ARC
  8
OBRYS
 10
1040.838880
 20
297.502097
 40
1.826301
 50
122.549059
 51
181.376948
  0
ARC
  8
OBRYS
 10
1024.091151
 20
320.989876
 40
27.000000
 50
0.000000
 51
234.279518
  0
ARC
  8
OBRYS
 10
1024.091151
 20
320.989876
 40
27.000000
 50
305.706274
 51
360.000000
  0
CIRCLE
  8
OBRYS
 10
1024.091151
 20
320.989876
 40
15.000000
  0
LINE
  8
OBRYS
 10
1009.177450
 20
297.461144
 11
1009.091151
 21
294.989876
  0
LINE
  8
OBRYS
 10
1039.091151
 20
294.989876
 11
1039.004853
 21
297.461144
  0
ARC
  8
OBRYS
 10
847.591151
 20
-27.510124
 40
1.000000
 50
90.000000
 51
180.000000
  0
ARC
  8
OBRYS
 10
847.591151
 20
-46.510124
 40
1.000000
 50
180.000000
 51
270.000000
  0
LINE
  8
OBRYS
 10
847.591151
 20
-47.510124
 11
849.091151
 21
-47.510124
  0
LINE
  8
OBRYS
 10
849.091151
 20
-26.510124
 11
847.591151
 21
-26.510124
  0
LINE
  8
OBRYS
 10
1132.591151
 20
298.989876
 11
1132.591151
 21
294.989876
  0
LINE
  8
OBRYS
 10
1145.591151
 20
294.989876
 11
1145.591151
 21
298.989876
  0
ARC
  8
OBRYS
 10
1144.591151
 20
298.989876
 40
1.000000
 50
0.000000
 51
90.000000
  0
ARC
  8
OBRYS
 10
1133.591151
 20
298.989876
 40
1.000000
 50
90.000000
 51
180.000000
  0
ARC
  8
OBRYS
 10
914.591151
 20
298.989876
 40
1.000000
 50
0.000000
 51
90.000000
  0
ARC
  8
OBRYS
 10
903.591151
 20
298.989876
 40
1.000000
 50
90.000000
 51
180.000000
  0
LINE
  8
OBRYS
 10
902.591151
 20
298.989876
 11
902.591151
 21
294.989876
  0
LINE
  8
OBRYS
 10
915.591151
 20
294.989876
 11
915.591151
 21
298.989876
  0
ARC
  8
OBRYS
 10
1029.591151
 20
298.989876
 40
1.000000
 50
0.000000
 51
90.000000
  0
ARC
  8
OBRYS
 10
1018.591151
 20
298.989876
 40
1.000000
 50
90.000000
 51
180.000000
  0
LINE
  8
OBRYS
 10
1017.591151
 20
298.989876
 11
1017.591151
 21
294.989876
  0
LINE
  8
OBRYS
 10
1030.591151
 20
294.989876
 11
1030.591151
 21
298.989876
  0
LINE
  8
TENKA
  6
PHANTOM2
 10
216.403139
 20
86.541775
 11
216.403139
 21
152.789876
  0
LINE
  8
TENKA
  6
PHANTOM2
 10
216.403139
 20
152.789876
 11
216.403139
 21
219.037978
  0
LINE
  8
TENKA
  6
PHANTOM2
 10
211.577637
 20
28.246284
 11
211.577637
 21
152.789876
  0
LINE
  8
TENKA
  6
PHANTOM2
 10
211.577637
 20
152.789876
 11
211.577637
 21
277.333469
  0
LINE
  8
TENKA
  6
PHANTOM2
 10
525.430765
 20
113.557574
 11
525.812831
 21
114.521859
  0
LINE
  8
TENKA
  6
PHANTOM2
 10
527.007838
 20
303.739876
 11
516.507838
 21
303.739876
  0
LINE
  8
TENKA
  6
PHANTOM2
 10
516.507838
 20
303.739876
 11
506.007838
 21
303.739876
  0
LINE
  8
TENKA
  6
PHANTOM2
 10
536.507838
 20
40.444468
 11
536.415974
 21
40.217342
  0
LINE
  8
TENKA
  6
PHANTOM2
 10
536.415974
 20
40.217342
 11
536.143757
 21
39.998562
  0
LINE
  8
TENKA
  6
PHANTOM2
 10
536.143757
 20
39.998562
 11
535.701190
 21
39.796167
  0
LINE
  8
TENKA
  6
PHANTOM2
 10
535.701190
 20
39.796167
 11
535.104537
 21
39.617595
  0
LINE
  8
TENKA
  6
PHANTOM2
 10
535.104537
 20
39.617595
 11
534.375720
 21
39.469406
  0
LINE
  8
TENKA
  6
PHANTOM2
 10
534.375720
 20
39.469406
 11
533.541521
 21
39.357047
  0
LINE
  8
TENKA
  6
PHANTOM2
 10
533.541521
 20
39.357047
 11
532.632593
 21
39.284645
  0
LINE
  8
TENKA
  6
PHANTOM2
 10
532.632593
 20
39.284645
 11
531.682335
 21
39.254862
  0
LINE
  8
TENKA
  6
PHANTOM2
 10
531.682335
 20
-0.148194
 11
531.682335
 21
39.254862
  0
LINE
  8
TENKA
  6
PHANTOM2
 10
536.507838
 20
40.506833
 11
536.415974
 21
40.273921
  0
LINE
  8
TENKA
  6
PHANTOM2
 10
536.415974
 20
40.273921
 11
536.143757
 21
40.049567
  0
LINE
  8
TENKA
  6
PHANTOM2
 10
536.143757
 20
40.049567
 11
535.701190
 21
39.842015
  0
LINE
  8
TENKA
  6
PHANTOM2
 10
535.701190
 20
39.842015
 11
535.104537
 21
39.658893
  0
LINE
  8
TENKA
  6
PHANTOM2
 10
535.104537
 20
39.658893
 11
534.375720
 21
39.506929
  0
LINE
  8
TENKA
  6
PHANTOM2
 10
534.375720
 20
39.506929
 11
533.541521
 21
39.391707
  0
LINE
  8
TENKA
  6
PHANTOM2
 10
533.541521
 20
39.391707
 11
532.632593
 21
39.317461
  0
LINE
  8
TENKA
  6
PHANTOM2
 10
532.632593
 20
39.317461
 11
531.682335
 21
39.286919
  0
LINE
  8
TENKA
  6
PHANTOM2
 10
531.682335
 20
39.254862
 11
528.333340
 21
39.227020
  0
LINE
  8
TENKA
  6
PHANTOM2
 10
531.682335
 20
39.254862
 11
531.682335
 21
39.286919
  0
LINE
  8
TENKA
  6
PHANTOM2
 10
531.682335
 20
39.286919
 11
531.816549
 21
40.019267
  0
LINE
  8
TENKA
  6
PHANTOM2
 10
531.816549
 20
40.019267
 11
532.043426
 21
40.476099
  0
LINE
  8
TENKA
  6
PHANTOM2
 10
532.043426
 20
40.476099
 11
532.990851
 21
41.470258
  0
LINE
  8
TENKA
  6
PHANTOM2
 10
532.990851
 20
41.470258
 11
535.138366
 21
42.559565
  0
LINE
  8
TENKA
  6
PHANTOM2
 10
535.138366
 20
42.559565
 11
536.793346
 21
42.989876
  0
LINE
  8
TENKA
  6
PHANTOM2
 10
528.333340
 20
39.227020
 11
528.333340
 21
-0.265143
  0
LINE
  8
TENKA
  6
PHANTOM2
 10
528.333340
 20
39.227020
 11
527.389225
 21
39.197574
  0
LINE
  8
TENKA
  6
PHANTOM2
 10
527.389225
 20
39.197574
 11
526.485677
 21
39.126053
  0
LINE
  8
TENKA
  6
PHANTOM2
 10
526.485677
 20
39.126053
 11
525.655466
 21
39.015052
  0
LINE
  8
TENKA
  6
PHANTOM2
 10
525.655466
 20
39.015052
 11
524.928699
 21
38.868595
  0
LINE
  8
TENKA
  6
PHANTOM2
 10
524.928699
 20
38.868595
 11
524.331733
 21
38.691995
  0
LINE
  8
TENKA
  6
PHANTOM2
 10
524.331733
 20
38.691995
 11
523.886218
 21
38.491655
  0
LINE
  8
TENKA
  6
PHANTOM2
 10
523.886218
 20
38.491655
 11
523.608312
 21
38.274843
  0
LINE
  8
TENKA
  6
PHANTOM2
 10
523.608312
 20
38.274843
 11
523.508092
 21
38.049419
  0
LINE
  8
TENKA
  6
PHANTOM2
 10
528.333340
 20
42.986830
 11
528.333340
 21
39.227020
  0
LINE
  8
TENKA
  6
PHANTOM2
 10
550.007838
 20
298.989876
 11
543.507838
 21
298.989876
  0
LINE
  8
TENKA
  6
PHANTOM2
 10
543.507838
 20
298.989876
 11
540.007838
 21
298.989876
  0
LINE
  8
TENKA
  6
PHANTOM2
 10
296.007838
 20
298.989876
 11
291.007838
 21
298.989876
  0
LINE
  8
TENKA
  6
PHANTOM2
 10
702.007838
 20
196.989876
 11
702.007838
 21
191.608052
  0
LINE
  8
TENKA
  6
PHANTOM2
 10
610.007838
 20
196.989876
 11
610.007838
 21
191.608052
  0
LINE
  8
TENKA
  6
PHANTOM2
 10
387.699075
 20
304.989876
 11
387.550557
 21
304.995871
  0
LINE
  8
TENKA
  6
PHANTOM2
 10
373.540713
 20
305.003552
 11
373.316600
 21
304.989876
  0
LINE
  8
TENKA
  6
PHANTOM2
 10
528.507838
 20
43.743634
 11
528.507838
 21
42.989876
  0
LINE
  8
TENKA
  6
PHANTOM2
 10
387.273401
 20
303.059675
 11
387.558816
 21
303.732587
  0
LINE
  8
TENKA
  6
PHANTOM2
 10
387.558816
 20
303.732587
 11
387.729699
 21
304.317806
  0
LINE
  8
TENKA
  6
PHANTOM2
 10
387.729699
 20
304.317806
 11
387.764130
 21
304.748523
  0
LINE
  8
TENKA
  6
PHANTOM2
 10
387.764130
 20
304.748523
 11
387.715805
 21
304.966584
  0
LINE
  8
TENKA
  6
PHANTOM2
 10
387.715805
 20
304.966584
 11
387.699075
 21
304.989876
  0
ARC
  8
TENKA
  6
PHANTOM2
 10
376.339900
 20
304.644577
 40
3.042954
 50
173.484321
 51
211.388815
  0
LINE
  8
TENKA
  6
PHANTOM2
 10
395.226034
 20
303.059675
 11
387.273401
 21
303.059675
  0
LINE
  8
TENKA
  6
PHANTOM2
 10
373.742274
 20
303.059675
 11
365.789641
 21
303.059675
  0
ARC
  8
TENKA
  6
PHANTOM2
 10
373.139127
 20
305.532948
 40
2.545755
 50
283.704983
 51
309.097154
  0
ARC
  8
TENKA
  6
PHANTOM2
 10
380.507838
 20
304.224948
 40
6.865181
 50
189.772509
 51
350.227491
  0
ARC
  8
TENKA
  6
PHANTOM2
 10
387.876548
 20
305.532948
 40
2.545755
 50
230.902846
 51
256.295017
  0
LINE
  8
TENKA
  6
PHANTOM2
 10
528.507838
 20
43.743634
 11
588.507838
 21
43.743634
  0
LINE
  8
TENKA
  6
PHANTOM2
 10
558.507838
 20
278.425655
 11
588.507838
 21
278.425655
  0
LINE
  8
TENKA
  6
PHANTOM2
 10
528.507838
 20
48.276448
 11
588.507838
 21
48.276448
  0
LINE
  8
TENKA
  6
PHANTOM2
 10
558.507838
 20
282.989876
 11
558.507838
 21
278.425655
  0
ARC
  8
TENKA
  6
PHANTOM2
 10
528.492184
 20
38.759287
 40
4.984371
 50
89.820056
 51
179.818918
  0
LINE
  8
TENKA
  6
PHANTOM2
 10
528.507838
 20
48.276448
 11
528.507838
 21
43.743634
  0
LINE
  8
TENKA
  6
PHANTOM2
 10
558.507838
 20
254.237099
 11
588.507838
 21
254.237099
  0
LINE
  8
TENKA
  6
PHANTOM2
 10
528.507838
 20
71.742653
 11
588.507838
 21
71.742653
  0
LINE
  8
TENKA
  6
PHANTOM2
 10
558.507838
 20
278.425655
 11
558.507838
 21
254.237099
  0
ARC
  8
TENKA
  6
PHANTOM2
 10
557.267333
 20
293.094630
 40
14.721335
 50
255.204055
 51
274.833806
  0
LINE
  8
TENKA
  6
PHANTOM2
 10
558.507838
 20
254.237099
 11
558.507838
 21
249.847457
  0
ARC
  8
TENKA
  6
PHANTOM2
 10
557.267333
 20
268.906075
 40
14.721335
 50
255.204055
 51
274.833806
  0
ARC
  8
TENKA
  6
PHANTOM2
 10
527.267333
 20
33.607473
 40
14.721335
 50
85.166194
 51
104.795945
  0
LINE
  8
TENKA
  6
PHANTOM2
 10
528.507838
 20
71.742653
 11
528.507838
 21
48.276448
  0
ARC
  8
TENKA
  6
PHANTOM2
 10
527.267333
 20
57.073678
 40
14.721335
 50
85.166194
 51
104.795945
  0
LINE
  8
TENKA
  6
PHANTOM2
 10
528.507838
 20
76.132296
 11
528.507838
 21
71.742653
  0
ARC
  8
TENKA
  6
PHANTOM2
 10
380.536149
 20
305.166771
 40
5.956529
 50
344.323112
 51
1.354392
  0
ARC
  8
TENKA
  6
PHANTOM2
 10
378.434925
 20
304.900037
 40
3.927056
 50
175.788440
 51
199.994725
  0
ARC
  8
TENKA
  6
PHANTOM2
 10
380.507838
 20
304.982539
 40
5.936890
 50
193.890925
 51
346.109075
  0
LINE
  8
TENKA
  6
PHANTOM2
 10
269.507838
 20
46.304935
 11
269.507838
 21
37.304935
  0
LINE
  8
TENKA
  6
PHANTOM2
 10
269.507838
 20
37.304935
 11
269.507838
 21
28.304935
  0
LINE
  8
TENKA
  6
PHANTOM2
 10
269.507838
 20
277.274818
 11
269.507838
 21
268.274818
  0
LINE
  8
TENKA
  6
PHANTOM2
 10
269.507838
 20
268.274818
 11
269.507838
 21
259.274818
  0
LINE
  8
TENKA
  6
PHANTOM2
 10
558.507838
 20
249.847457
 11
588.507838
 21
249.847457
  0
LINE
  8
TENKA
  6
PHANTOM2
 10
528.507838
 20
76.132296
 11
588.507838
 21
76.132296
  0
LINE
  8
TENKA
  6
PHANTOM2
 10
227.415927
 20
86.789876
 11
227.415927
 21
218.789876
  0
LINE
  8
TENKA
  6
PHANTOM2
 10
558.507838
 20
249.847457
 11
558.507838
 21
236.273844
  0
ARC
  8
TENKA
  6
PHANTOM2
 10
558.422072
 20
254.761746
 40
4.915038
 50
181.036017
 51
270.999840
  0
ARC
  8
TENKA
  6
PHANTOM2
 10
528.422072
 20
71.218006
 40
4.915038
 50
89.000160
 51
178.963983
  0
LINE
  8
TENKA
  6
PHANTOM2
 10
528.507838
 20
89.705909
 11
528.507838
 21
76.132296
  0
LINE
  8
TENKA
  6
PHANTOM2
 10
558.507838
 20
186.002483
 11
588.507838
 21
186.002483
  0
LINE
  8
TENKA
  6
PHANTOM2
 10
545.256876
 20
139.977269
 11
588.507838
 21
139.977269
  0
LINE
  8
TENKA
  6
PHANTOM2
 10
545.256876
 20
139.977269
 11
545.256876
 21
134.603031
  0
LINE
  8
TENKA
  6
PHANTOM2
 10
558.507838
 20
191.376722
 11
558.507838
 21
186.002483
  0
LINE
  8
TENKA
  6
PHANTOM2
 10
540.926749
 20
141.198791
 11
541.097068
 21
141.331648
  0
LINE
  8
TENKA
  6
PHANTOM2
 10
541.097068
 20
141.331648
 11
541.402286
 21
141.379124
  0
LINE
  8
TENKA
  6
PHANTOM2
 10
541.402286
 20
141.379124
 11
541.832504
 21
141.339680
  0
LINE
  8
TENKA
  6
PHANTOM2
 10
541.832504
 20
141.339680
 11
542.373771
 21
141.214594
  0
LINE
  8
TENKA
  6
PHANTOM2
 10
542.373771
 20
141.214594
 11
543.008534
 21
141.007923
  0
LINE
  8
TENKA
  6
PHANTOM2
 10
543.008534
 20
141.007923
 11
543.716209
 21
140.726370
  0
LINE
  8
TENKA
  6
PHANTOM2
 10
543.716209
 20
140.726370
 11
544.473846
 21
140.379064
  0
LINE
  8
TENKA
  6
PHANTOM2
 10
544.473846
 20
140.379064
 11
545.256876
 21
139.977269
  0
LINE
  8
TENKA
  6
PHANTOM2
 10
553.818727
 20
154.026327
 11
545.256876
 21
139.977269
  0
LINE
  8
TENKA
  6
PHANTOM2
 10
558.507838
 20
186.002483
 11
558.507838
 21
170.605274
  0
LINE
  8
TENKA
  6
PHANTOM2
 10
553.507838
 20
187.280961
 11
553.603911
 21
187.031543
  0
LINE
  8
TENKA
  6
PHANTOM2
 10
553.603911
 20
187.031543
 11
553.888440
 21
186.791709
  0
LINE
  8
TENKA
  6
PHANTOM2
 10
553.888440
 20
186.791709
 11
554.350490
 21
186.570677
  0
LINE
  8
TENKA
  6
PHANTOM2
 10
554.350490
 20
186.570677
 11
554.972304
 21
186.376941
  0
LINE
  8
TENKA
  6
PHANTOM2
 10
554.972304
 20
186.376941
 11
555.729986
 21
186.217946
  0
LINE
  8
TENKA
  6
PHANTOM2
 10
555.729986
 20
186.217946
 11
556.594420
 21
186.099802
  0
LINE
  8
TENKA
  6
PHANTOM2
 10
556.594420
 20
186.099802
 11
557.532386
 21
186.027049
  0
LINE
  8
TENKA
  6
PHANTOM2
 10
557.532386
 20
186.027049
 11
558.507838
 21
186.002483
  0
ARC
  8
TENKA
  6
PHANTOM2
 10
545.932004
 20
142.652114
 40
13.840994
 50
55.263094
 51
75.110185
  0
ARC
  8
TENKA
  6
PHANTOM2
 10
526.675802
 20
170.655900
 40
31.832076
 50
328.505575
 51
359.908877
  0
ARC
  8
TENKA
  6
PHANTOM2
 10
557.266787
 20
185.695284
 40
15.140957
 50
255.625211
 51
274.701605
  0
LINE
  8
TENKA
  6
PHANTOM2
 10
558.507838
 20
236.273844
 11
558.507838
 21
234.242712
  0
LINE
  8
TENKA
  6
PHANTOM2
 10
528.507838
 20
91.737041
 11
528.507838
 21
89.705909
  0
LINE
  8
TENKA
  6
PHANTOM2
 10
229.344290
 20
219.491743
 11
229.344290
 21
86.088009
  0
LINE
  8
TENKA
  6
PHANTOM2
 10
274.436200
 20
113.963739
 11
274.436200
 21
152.789876
  0
LINE
  8
TENKA
  6
PHANTOM2
 10
274.436200
 20
48.251404
 11
274.436200
 21
95.963739
  0
LINE
  8
TENKA
  6
PHANTOM2
 10
274.436200
 20
209.634597
 11
274.436200
 21
257.328348
  0
LINE
  8
TENKA
  6
PHANTOM2
 10
274.436200
 20
152.789876
 11
274.436200
 21
191.634597
  0
LINE
  8
TENKA
  6
PHANTOM2
 10
558.507838
 20
191.376722
 11
588.507838
 21
191.376722
  0
LINE
  8
TENKA
  6
PHANTOM2
 10
545.256876
 20
134.603031
 11
588.507838
 21
134.603031
  0
LINE
  8
TENKA
  6
PHANTOM2
 10
523.507838
 20
88.768172
 11
523.603911
 21
89.347370
  0
LINE
  8
TENKA
  6
PHANTOM2
 10
523.603911
 20
89.347370
 11
523.888440
 21
89.904309
  0
LINE
  8
TENKA
  6
PHANTOM2
 10
523.888440
 20
89.904309
 11
524.350490
 21
90.417587
  0
LINE
  8
TENKA
  6
PHANTOM2
 10
524.350490
 20
90.417587
 11
524.972304
 21
90.867479
  0
LINE
  8
TENKA
  6
PHANTOM2
 10
524.972304
 20
90.867479
 11
525.729986
 21
91.236696
  0
LINE
  8
TENKA
  6
PHANTOM2
 10
525.729986
 20
91.236696
 11
526.594420
 21
91.511049
  0
LINE
  8
TENKA
  6
PHANTOM2
 10
526.594420
 20
91.511049
 11
527.532386
 21
91.679995
  0
LINE
  8
TENKA
  6
PHANTOM2
 10
527.532386
 20
91.679995
 11
528.507838
 21
91.737041
  0
LINE
  8
TENKA
  6
PHANTOM2
 10
558.507838
 20
234.242712
 11
588.507838
 21
234.242712
  0
LINE
  8
TENKA
  6
PHANTOM2
 10
528.507838
 20
105.389876
 11
528.507838
 21
91.737041
  0
LINE
  8
TENKA
  6
PHANTOM2
 10
528.507838
 20
91.737041
 11
588.507838
 21
91.737041
  0
LINE
  8
TENKA
  6
PHANTOM2
 10
558.507838
 20
210.983283
 11
588.507838
 21
210.983283
  0
LINE
  8
TENKA
  6
PHANTOM2
 10
558.507838
 20
204.887797
 11
588.507838
 21
204.887797
  0
LINE
  8
TENKA
  6
PHANTOM2
 10
537.456252
 20
121.091955
 11
588.507838
 21
121.091955
  0
LINE
  8
TENKA
  6
PHANTOM2
 10
530.597958
 20
114.996469
 11
588.507838
 21
114.996469
  0
LINE
  8
TENKA
  6
PHANTOM2
 10
545.256876
 20
134.603031
 11
537.456252
 21
121.091955
  0
LINE
  8
TENKA
  6
PHANTOM2
 10
540.926749
 20
141.198791
 11
540.581129
 21
140.291511
  0
LINE
  8
TENKA
  6
PHANTOM2
 10
540.581129
 20
140.291511
 11
540.524142
 21
139.285914
  0
LINE
  8
TENKA
  6
PHANTOM2
 10
540.524142
 20
139.285914
 11
540.759305
 21
138.244073
  0
LINE
  8
TENKA
  6
PHANTOM2
 10
540.759305
 20
138.244073
 11
541.272102
 21
137.230302
  0
LINE
  8
TENKA
  6
PHANTOM2
 10
541.272102
 20
137.230302
 11
542.030878
 21
136.307180
  0
LINE
  8
TENKA
  6
PHANTOM2
 10
542.030878
 20
136.307180
 11
542.988794
 21
135.531692
  0
LINE
  8
TENKA
  6
PHANTOM2
 10
542.988794
 20
135.531692
 11
544.086718
 21
134.951708
  0
LINE
  8
TENKA
  6
PHANTOM2
 10
544.086718
 20
134.951708
 11
545.256876
 21
134.603031
  0
ARC
  8
TENKA
  6
PHANTOM2
 10
558.096600
 20
186.778933
 40
4.616143
 50
84.888926
 51
173.756454
  0
LINE
  8
TENKA
  6
PHANTOM2
 10
558.507838
 20
204.887797
 11
558.507838
 21
191.376722
  0
LINE
  8
TENKA
  6
PHANTOM2
 10
558.507838
 20
234.242712
 11
558.507838
 21
210.983283
  0
LINE
  8
TENKA
  6
PHANTOM2
 10
553.507838
 20
237.211580
 11
553.603911
 21
236.632382
  0
LINE
  8
TENKA
  6
PHANTOM2
 10
553.603911
 20
236.632382
 11
553.888440
 21
236.075443
  0
LINE
  8
TENKA
  6
PHANTOM2
 10
553.888440
 20
236.075443
 11
554.350490
 21
235.562165
  0
LINE
  8
TENKA
  6
PHANTOM2
 10
554.350490
 20
235.562165
 11
554.972304
 21
235.112273
  0
LINE
  8
TENKA
  6
PHANTOM2
 10
554.972304
 20
235.112273
 11
555.729986
 21
234.743056
  0
LINE
  8
TENKA
  6
PHANTOM2
 10
555.729986
 20
234.743056
 11
556.594420
 21
234.468703
  0
LINE
  8
TENKA
  6
PHANTOM2
 10
556.594420
 20
234.468703
 11
557.532386
 21
234.299758
  0
LINE
  8
TENKA
  6
PHANTOM2
 10
557.532386
 20
234.299758
 11
558.507838
 21
234.242712
  0
ARC
  8
TENKA
  6
PHANTOM2
 10
558.096600
 20
200.290009
 40
4.616143
 50
84.888926
 51
173.756454
  0
LINE
  8
TENKA
  6
PHANTOM2
 10
558.507838
 20
210.983283
 11
558.507838
 21
204.887797
  0
LINE
  8
TENKA
  6
PHANTOM2
 10
553.507838
 20
212.983008
 11
553.603911
 21
212.592881
  0
LINE
  8
TENKA
  6
PHANTOM2
 10
553.603911
 20
212.592881
 11
553.888440
 21
212.217747
  0
LINE
  8
TENKA
  6
PHANTOM2
 10
553.888440
 20
212.217747
 11
554.350490
 21
211.872020
  0
LINE
  8
TENKA
  6
PHANTOM2
 10
554.350490
 20
211.872020
 11
554.972304
 21
211.568989
  0
LINE
  8
TENKA
  6
PHANTOM2
 10
554.972304
 20
211.568989
 11
555.729986
 21
211.320297
  0
LINE
  8
TENKA
  6
PHANTOM2
 10
555.729986
 20
211.320297
 11
556.594420
 21
211.135503
  0
LINE
  8
TENKA
  6
PHANTOM2
 10
556.594420
 20
211.135503
 11
557.532386
 21
211.021707
  0
LINE
  8
TENKA
  6
PHANTOM2
 10
557.532386
 20
211.021707
 11
558.507838
 21
210.983283
  0
LINE
  8
TENKA
  6
PHANTOM2
 10
537.456252
 20
121.091955
 11
531.857203
 21
116.243035
  0
LINE
  8
TENKA
  6
PHANTOM2
 10
533.126125
 20
127.687715
 11
532.780506
 21
126.780436
  0
LINE
  8
TENKA
  6
PHANTOM2
 10
532.780506
 20
126.780436
 11
532.723519
 21
125.774838
  0
LINE
  8
TENKA
  6
PHANTOM2
 10
532.723519
 20
125.774838
 11
532.958682
 21
124.732997
  0
LINE
  8
TENKA
  6
PHANTOM2
 10
532.958682
 20
124.732997
 11
533.471479
 21
123.719226
  0
LINE
  8
TENKA
  6
PHANTOM2
 10
533.471479
 20
123.719226
 11
534.230255
 21
122.796105
  0
LINE
  8
TENKA
  6
PHANTOM2
 10
534.230255
 20
122.796105
 11
535.188171
 21
122.020616
  0
LINE
  8
TENKA
  6
PHANTOM2
 10
535.188171
 20
122.020616
 11
536.286095
 21
121.440632
  0
LINE
  8
TENKA
  6
PHANTOM2
 10
536.286095
 20
121.440632
 11
537.456252
 21
121.091955
  0
LINE
  8
TENKA
  6
PHANTOM2
 10
531.857203
 20
116.243035
 11
530.597958
 21
114.996469
  0
ARC
  8
TENKA
  6
PHANTOM2
 10
526.394128
 20
108.941236
 40
9.119291
 50
53.196826
 51
82.863340
  0
LINE
  8
TENKA
  6
PHANTOM2
 10
523.507838
 20
102.989876
 11
523.603911
 21
103.458093
  0
LINE
  8
TENKA
  6
PHANTOM2
 10
523.603911
 20
103.458093
 11
523.888440
 21
103.908316
  0
LINE
  8
TENKA
  6
PHANTOM2
 10
523.888440
 20
103.908316
 11
524.350490
 21
104.323245
  0
LINE
  8
TENKA
  6
PHANTOM2
 10
524.350490
 20
104.323245
 11
524.972304
 21
104.686932
  0
LINE
  8
TENKA
  6
PHANTOM2
 10
524.972304
 20
104.686932
 11
525.729986
 21
104.985403
  0
LINE
  8
TENKA
  6
PHANTOM2
 10
525.729986
 20
104.985403
 11
526.594420
 21
105.207187
  0
LINE
  8
TENKA
  6
PHANTOM2
 10
526.594420
 20
105.207187
 11
527.532386
 21
105.343761
  0
LINE
  8
TENKA
  6
PHANTOM2
 10
527.532386
 20
105.343761
 11
528.507838
 21
105.389876
  0
ARC
  8
TENKA
  6
PHANTOM2
 10
551.644984
 20
105.386566
 40
23.137147
 50
155.458942
 51
179.991803
  0
LINE
  8
TENKA
  6
PHANTOM2
 10
526.015982
 20
114.998118
 11
526.217263
 21
115.265414
  0
LINE
  8
TENKA
  6
PHANTOM2
 10
526.217263
 20
115.265414
 11
526.554278
 21
115.462418
  0
LINE
  8
TENKA
  6
PHANTOM2
 10
526.554278
 20
115.462418
 11
527.016584
 21
115.583023
  0
LINE
  8
TENKA
  6
PHANTOM2
 10
527.016584
 20
115.583023
 11
527.589857
 21
115.623495
  0
LINE
  8
TENKA
  6
PHANTOM2
 10
527.589857
 20
115.623495
 11
528.256334
 21
115.582577
  0
LINE
  8
TENKA
  6
PHANTOM2
 10
528.256334
 20
115.582577
 11
528.995366
 21
115.461539
  0
LINE
  8
TENKA
  6
PHANTOM2
 10
528.995366
 20
115.461539
 11
529.784053
 21
115.264131
  0
LINE
  8
TENKA
  6
PHANTOM2
 10
529.784053
 20
115.264131
 11
530.597958
 21
114.996469
  0
LINE
  8
TENKA
  6
PHANTOM2
 10
540.007838
 20
298.989876
 11
533.507838
 21
298.989876
  0
LINE
  8
TENKA
  6
PHANTOM2
 10
533.507838
 20
298.989876
 11
527.007838
 21
298.989876
  0
LINE
  8
TENKA
  6
PHANTOM2
 10
427.007838
 20
298.989876
 11
420.507838
 21
298.989876
  0
LINE
  8
TENKA
  6
PHANTOM2
 10
420.507838
 20
298.989876
 11
414.007838
 21
298.989876
  0
LINE
  8
TENKA
  6
PHANTOM2
 10
309.007838
 20
298.989876
 11
302.507838
 21
298.989876
  0
LINE
  8
TENKA
  6
PHANTOM2
 10
302.507838
 20
298.989876
 11
296.007838
 21
298.989876
  0
LINE
  8
TENKA
  6
PHANTOM2
 10
269.507838
 20
209.634597
 11
269.507838
 21
200.634597
  0
LINE
  8
TENKA
  6
PHANTOM2
 10
269.507838
 20
200.634597
 11
269.507838
 21
191.634597
  0
LINE
  8
TENKA
  6
PHANTOM2
 10
269.507838
 20
113.963739
 11
269.507838
 21
104.963739
  0
LINE
  8
TENKA
  6
PHANTOM2
 10
269.507838
 20
104.963739
 11
269.507838
 21
95.963739
  0
LINE
  8
TENKA
  6
PHANTOM2
 10
522.507838
 20
294.489876
 11
522.507838
 21
294.989876
  0
LINE
  8
TENKA
  6
PHANTOM2
 10
296.507838
 20
294.489876
 11
296.507838
 21
294.989876
  0
LINE
  8
TENKA
  6
PHANTOM2
 10
296.507838
 20
294.489876
 11
296.507838
 21
282.989876
  0
LINE
  8
TENKA
  6
PHANTOM2
 10
522.507838
 20
294.489876
 11
522.507838
 21
282.989876
  0
LINE
  8
TENKA
  6
PHANTOM2
 10
277.438039
 20
292.438231
 11
277.438039
 21
13.141521
  0
LINE
  8
TENKA
  6
PHANTOM2
 10
218.507838
 20
-17.010124
 11
222.213742
 21
-17.010124
  0
LINE
  8
TENKA
  6
PHANTOM2
 10
579.801933
 20
-17.010124
 11
583.507838
 21
-17.010124
  0
LINE
  8
TENKA
  6
PHANTOM2
 10
553.507838
 20
171.028352
 11
552.931396
 21
172.042249
  0
LINE
  8
TENKA
  6
PHANTOM2
 10
552.931396
 20
172.042249
 11
551.224224
 21
173.017183
  0
LINE
  8
TENKA
  6
PHANTOM2
 10
551.224224
 20
173.017183
 11
548.451926
 21
173.915687
  0
LINE
  8
TENKA
  6
PHANTOM2
 10
548.451926
 20
173.915687
 11
544.721041
 21
174.703233
  0
LINE
  8
TENKA
  6
PHANTOM2
 10
544.721041
 20
174.703233
 11
540.174945
 21
175.349555
  0
LINE
  8
TENKA
  6
PHANTOM2
 10
540.174945
 20
175.349555
 11
534.988341
 21
175.829815
  0
LINE
  8
TENKA
  6
PHANTOM2
 10
534.988341
 20
175.829815
 11
529.360547
 21
176.125558
  0
LINE
  8
TENKA
  6
PHANTOM2
 10
529.360547
 20
176.125558
 11
523.507838
 21
176.225418
  0
LINE
  8
TENKA
  6
PHANTOM2
 10
523.507838
 20
176.225418
 11
525.423573
 21
175.134572
  0
LINE
  8
TENKA
  6
PHANTOM2
 10
525.423573
 20
175.134572
 11
527.181902
 21
174.105594
  0
LINE
  8
TENKA
  6
PHANTOM2
 10
527.181902
 20
174.105594
 11
528.779142
 21
173.151848
  0
LINE
  8
TENKA
  6
PHANTOM2
 10
528.779142
 20
173.151848
 11
530.214232
 21
172.281423
  0
LINE
  8
TENKA
  6
PHANTOM2
 10
530.214232
 20
172.281423
 11
531.488103
 21
171.498140
  0
LINE
  8
TENKA
  6
PHANTOM2
 10
531.488103
 20
171.498140
 11
532.603110
 21
170.802535
  0
LINE
  8
TENKA
  6
PHANTOM2
 10
532.603110
 20
170.802535
 11
533.562524
 21
170.192754
  0
LINE
  8
TENKA
  6
PHANTOM2
 10
533.562524
 20
170.192754
 11
536.450642
 21
168.285894
  0
LINE
  8
TENKA
  6
PHANTOM2
 10
536.450642
 20
168.285894
 11
538.926570
 21
166.574427
  0
LINE
  8
TENKA
  6
PHANTOM2
 10
538.926570
 20
166.574427
 11
540.015806
 21
165.797685
  0
LINE
  8
TENKA
  6
PHANTOM2
 10
540.015806
 20
165.797685
 11
541.010268
 21
165.073567
  0
LINE
  8
TENKA
  6
PHANTOM2
 10
541.010268
 20
165.073567
 11
541.913766
 21
164.400400
  0
LINE
  8
TENKA
  6
PHANTOM2
 10
541.913766
 20
164.400400
 11
542.730370
 21
163.775400
  0
LINE
  8
TENKA
  6
PHANTOM2
 10
542.730370
 20
163.775400
 11
544.718946
 21
162.164653
  0
LINE
  8
TENKA
  6
PHANTOM2
 10
544.718946
 20
162.164653
 11
546.281166
 21
160.792501
  0
LINE
  8
TENKA
  6
PHANTOM2
 10
546.281166
 20
160.792501
 11
547.114002
 21
160.005949
  0
LINE
  8
TENKA
  6
PHANTOM2
 10
547.114002
 20
160.005949
 11
547.798922
 21
159.311561
  0
LINE
  8
TENKA
  6
PHANTOM2
 10
547.798922
 20
159.311561
 11
548.350856
 21
158.696519
  0
LINE
  8
TENKA
  6
PHANTOM2
 10
548.350856
 20
158.696519
 11
549.204364
 21
157.525886
  0
LINE
  8
TENKA
  6
PHANTOM2
 10
549.204364
 20
157.525886
 11
549.566137
 21
156.648445
  0
LINE
  8
TENKA
  6
PHANTOM2
 10
549.566137
 20
156.648445
 11
549.488600
 21
156.028352
  0
LINE
  8
TENKA
  6
PHANTOM2
 10
518.866821
 20
124.201997
 11
520.496405
 21
123.253408
  0
LINE
  8
TENKA
  6
PHANTOM2
 10
520.496405
 20
123.253408
 11
522.166786
 21
122.233656
  0
LINE
  8
TENKA
  6
PHANTOM2
 10
522.166786
 20
122.233656
 11
523.769423
 21
121.201003
  0
LINE
  8
TENKA
  6
PHANTOM2
 10
523.769423
 20
121.201003
 11
525.184998
 21
120.226391
  0
LINE
  8
TENKA
  6
PHANTOM2
 10
525.184998
 20
120.226391
 11
526.309072
 21
119.379277
  0
LINE
  8
TENKA
  6
PHANTOM2
 10
526.309072
 20
119.379277
 11
527.076204
 21
118.712062
  0
LINE
  8
TENKA
  6
PHANTOM2
 10
527.076204
 20
118.712062
 11
527.471712
 21
118.249923
  0
LINE
  8
TENKA
  6
PHANTOM2
 10
527.471712
 20
118.249923
 11
527.527076
 21
117.989876
  0
LINE
  8
TENKA
  6
PHANTOM2
 10
579.801933
 20
-62.010124
 11
579.801933
 21
-17.010124
  0
LINE
  8
TENKA
  6
PHANTOM2
 10
222.213742
 20
-17.010124
 11
222.213742
 21
-62.010124
  0
LINE
  8
TENKA
  6
PHANTOM2
 10
524.143670
 20
-17.010124
 11
524.143670
 21
-62.010124
  0
LINE
  8
TENKA
  6
PHANTOM2
 10
415.507838
 20
-52.010124
 11
415.507838
 21
-57.010124
  0
LINE
  8
TENKA
  6
PHANTOM2
 10
483.507838
 20
-57.010124
 11
483.507838
 21
-52.010124
  0
LINE
  8
TENKA
  6
PHANTOM2
 10
291.872005
 20
-62.010124
 11
291.872005
 21
-17.010124
  0
LINE
  8
TENKA
  6
PHANTOM2
 10
297.507838
 20
2.989876
 11
297.507838
 21
-11.800070
  0
LINE
  8
TENKA
  6
PHANTOM2
 10
293.166100
 20
-15.716029
 11
293.166100
 21
-62.010124
  0
LINE
  8
TENKA
  6
PHANTOM2
 10
415.507838
 20
-52.010124
 11
483.507838
 21
-52.010124
  0
LINE
  8
TENKA
  6
PHANTOM2
 10
522.849575
 20
-62.010124
 11
522.849575
 21
-15.716029
  0
LINE
  8
TENKA
  6
PHANTOM2
 10
518.507838
 20
-11.800070
 11
518.507838
 21
2.989876
  0
LINE
  8
TENKA
  6
PHANTOM2
 10
292.507838
 20
2.989876
 11
297.507838
 21
2.989876
  0
LINE
  8
TENKA
  6
PHANTOM2
 10
518.507838
 20
2.989876
 11
523.507838
 21
2.989876
  0
ARC
  8
TENKA
  6
PHANTOM2
 10
519.745212
 20
90.678004
 40
12.873987
 50
73.006346
 51
95.515457
  0
LINE
  8
TENKA
  6
PHANTOM2
 10
297.507838
 20
282.989876
 11
297.507838
 21
2.989876
  0
LINE
  8
TENKA
  6
PHANTOM2
 10
297.507838
 20
2.989876
 11
518.507838
 21
2.989876
  0
LINE
  8
TENKA
  6
PHANTOM2
 10
518.507838
 20
2.989876
 11
518.507838
 21
103.492389
  0
LINE
  8
TENKA
  6
PHANTOM2
 10
518.507838
 20
103.492389
 11
518.538107
 21
106.270896
  0
LINE
  8
TENKA
  6
PHANTOM2
 10
518.538107
 20
106.270896
 11
518.628900
 21
108.772167
  0
LINE
  8
TENKA
  6
PHANTOM2
 10
518.628900
 20
108.772167
 11
518.780218
 21
110.996407
  0
LINE
  8
TENKA
  6
PHANTOM2
 10
518.780218
 20
110.996407
 11
518.992061
 21
112.943801
  0
LINE
  8
TENKA
  6
PHANTOM2
 10
518.992061
 20
112.943801
 11
519.171791
 21
114.148970
  0
LINE
  8
TENKA
  6
PHANTOM2
 10
519.171791
 20
114.148970
 11
519.355693
 21
115.372850
  0
LINE
  8
TENKA
  6
PHANTOM2
 10
519.355693
 20
115.372850
 11
519.280124
 21
116.530570
  0
LINE
  8
TENKA
  6
PHANTOM2
 10
519.280124
 20
116.530570
 11
518.963789
 21
118.209643
  0
LINE
  8
TENKA
  6
PHANTOM2
 10
518.963789
 20
118.209643
 11
518.683519
 21
119.525955
  0
LINE
  8
TENKA
  6
PHANTOM2
 10
518.683519
 20
119.525955
 11
518.494643
 21
120.579446
  0
LINE
  8
TENKA
  6
PHANTOM2
 10
518.494643
 20
120.579446
 11
518.397160
 21
121.370213
  0
LINE
  8
TENKA
  6
PHANTOM2
 10
518.397160
 20
121.370213
 11
518.445198
 21
122.961564
  0
LINE
  8
TENKA
  6
PHANTOM2
 10
518.445198
 20
122.961564
 11
518.866821
 21
124.201997
  0
LINE
  8
TENKA
  6
PHANTOM2
 10
518.866821
 20
124.201997
 11
519.347234
 21
125.534067
  0
LINE
  8
TENKA
  6
PHANTOM2
 10
519.347234
 20
125.534067
 11
519.488291
 21
127.454947
  0
LINE
  8
TENKA
  6
PHANTOM2
 10
519.488291
 20
127.454947
 11
519.328636
 21
129.368809
  0
LINE
  8
TENKA
  6
PHANTOM2
 10
519.328636
 20
129.368809
 11
519.007636
 21
132.061862
  0
LINE
  8
TENKA
  6
PHANTOM2
 10
519.007636
 20
132.061862
 11
518.884461
 21
134.081846
  0
LINE
  8
TENKA
  6
PHANTOM2
 10
518.884461
 20
134.081846
 11
518.917104
 21
134.730860
  0
LINE
  8
TENKA
  6
PHANTOM2
 10
518.917104
 20
134.730860
 11
519.034733
 21
135.737196
  0
LINE
  8
TENKA
  6
PHANTOM2
 10
519.034733
 20
135.737196
 11
519.249190
 21
137.440559
  0
LINE
  8
TENKA
  6
PHANTOM2
 10
519.249190
 20
137.440559
 11
519.413132
 21
138.718245
  0
LINE
  8
TENKA
  6
PHANTOM2
 10
519.413132
 20
138.718245
 11
519.564179
 21
139.899103
  0
LINE
  8
TENKA
  6
PHANTOM2
 10
519.564179
 20
139.899103
 11
520.887129
 21
150.413730
  0
LINE
  8
TENKA
  6
PHANTOM2
 10
520.887129
 20
150.413730
 11
521.282993
 21
153.622922
  0
LINE
  8
TENKA
  6
PHANTOM2
 10
521.282993
 20
153.622922
 11
521.673785
 21
156.821029
  0
LINE
  8
TENKA
  6
PHANTOM2
 10
521.673785
 20
156.821029
 11
522.059504
 21
160.008033
  0
LINE
  8
TENKA
  6
PHANTOM2
 10
522.059504
 20
160.008033
 11
522.440150
 21
163.183914
  0
LINE
  8
TENKA
  6
PHANTOM2
 10
522.440150
 20
163.183914
 11
522.559771
 21
165.260374
  0
LINE
  8
TENKA
  6
PHANTOM2
 10
522.559771
 20
165.260374
 11
522.523310
 21
167.699615
  0
LINE
  8
TENKA
  6
PHANTOM2
 10
522.523310
 20
167.699615
 11
522.446816
 21
170.020925
  0
LINE
  8
TENKA
  6
PHANTOM2
 10
522.446816
 20
170.020925
 11
522.605863
 21
173.359478
  0
LINE
  8
TENKA
  6
PHANTOM2
 10
522.605863
 20
173.359478
 11
522.946216
 21
174.898618
  0
LINE
  8
TENKA
  6
PHANTOM2
 10
522.946216
 20
174.898618
 11
523.507838
 21
176.225418
  0
LINE
  8
TENKA
  6
PHANTOM2
 10
523.507838
 20
176.225418
 11
523.507838
 21
282.989876
  0
ARC
  8
TENKA
  6
PHANTOM2
 10
528.515756
 20
-12.398045
 40
0.388001
 50
91.169309
 51
120.587124
  0
LINE
  8
TENKA
  6
PHANTOM2
 10
579.801933
 20
-17.010124
 11
524.143670
 21
-17.010124
  0
LINE
  8
TENKA
  6
PHANTOM2
 10
579.801933
 20
-17.010124
 11
579.777067
 21
-16.034672
  0
LINE
  8
TENKA
  6
PHANTOM2
 10
579.777067
 20
-16.034672
 11
579.703426
 21
-15.096707
  0
LINE
  8
TENKA
  6
PHANTOM2
 10
579.703426
 20
-15.096707
 11
579.583838
 21
-14.232273
  0
LINE
  8
TENKA
  6
PHANTOM2
 10
579.583838
 20
-14.232273
 11
579.422901
 21
-13.474590
  0
LINE
  8
TENKA
  6
PHANTOM2
 10
579.422901
 20
-13.474590
 11
579.226798
 21
-12.852776
  0
LINE
  8
TENKA
  6
PHANTOM2
 10
579.226798
 20
-12.852776
 11
579.003066
 21
-12.390726
  0
LINE
  8
TENKA
  6
PHANTOM2
 10
579.003066
 20
-12.390726
 11
578.760303
 21
-12.106197
  0
LINE
  8
TENKA
  6
PHANTOM2
 10
578.760303
 20
-12.106197
 11
578.507838
 21
-12.010124
  0
ARC
  8
TENKA
  6
PHANTOM2
 10
516.111265
 20
10.696428
 40
25.827325
 50
281.311299
 51
298.205877
  0
ARC
  8
TENKA
  6
PHANTOM2
 10
528.491602
 20
-7.074590
 40
4.992449
 50
195.868648
 51
268.010950
  0
LINE
  8
TENKA
  6
PHANTOM2
 10
518.507838
 20
-11.800070
 11
519.104585
 21
-12.215074
  0
LINE
  8
TENKA
  6
PHANTOM2
 10
519.104585
 20
-12.215074
 11
519.655199
 21
-12.395690
  0
LINE
  8
TENKA
  6
PHANTOM2
 10
519.655199
 20
-12.395690
 11
519.963173
 21
-12.393680
  0
LINE
  8
TENKA
  6
PHANTOM2
 10
519.963173
 20
-12.393680
 11
520.481454
 21
-12.210374
  0
LINE
  8
TENKA
  6
PHANTOM2
 10
520.481454
 20
-12.210374
 11
520.758138
 21
-12.021510
  0
LINE
  8
TENKA
  6
PHANTOM2
 10
520.758138
 20
-12.021510
 11
521.637019
 21
-11.050119
  0
LINE
  8
TENKA
  6
PHANTOM2
 10
521.637019
 20
-11.050119
 11
522.703041
 21
-9.246747
  0
LINE
  8
TENKA
  6
PHANTOM2
 10
522.703041
 20
-9.246747
 11
523.286879
 21
-7.930178
  0
LINE
  8
TENKA
  6
PHANTOM2
 10
523.286879
 20
-7.930178
 11
523.488288
 21
-7.280034
  0
LINE
  8
TENKA
  6
PHANTOM2
 10
523.488288
 20
-7.280034
 11
523.507838
 21
-7.117938
  0
ARC
  8
TENKA
  6
PHANTOM2
 10
287.523459
 20
-7.072751
 40
4.994308
 50
271.995356
 51
341.932265
  0
LINE
  8
TENKA
  6
PHANTOM2
 10
292.507838
 20
-7.117938
 11
292.617521
 21
-7.613049
  0
LINE
  8
TENKA
  6
PHANTOM2
 10
292.617521
 20
-7.613049
 11
293.141093
 21
-8.893773
  0
LINE
  8
TENKA
  6
PHANTOM2
 10
293.141093
 20
-8.893773
 11
294.375455
 21
-11.045663
  0
LINE
  8
TENKA
  6
PHANTOM2
 10
294.375455
 20
-11.045663
 11
295.405994
 21
-12.130471
  0
LINE
  8
TENKA
  6
PHANTOM2
 10
295.405994
 20
-12.130471
 11
295.914003
 21
-12.366915
  0
LINE
  8
TENKA
  6
PHANTOM2
 10
295.914003
 20
-12.366915
 11
296.174447
 21
-12.403865
  0
LINE
  8
TENKA
  6
PHANTOM2
 10
296.174447
 20
-12.403865
 11
296.692341
 21
-12.313245
  0
LINE
  8
TENKA
  6
PHANTOM2
 10
296.692341
 20
-12.313245
 11
296.980613
 21
-12.177212
  0
LINE
  8
TENKA
  6
PHANTOM2
 10
296.980613
 20
-12.177212
 11
297.507838
 21
-11.800070
  0
ARC
  8
TENKA
  6
PHANTOM2
 10
300.047735
 20
11.095432
 40
26.246765
 50
241.930079
 51
258.552746
  0
ARC
  8
TENKA
  6
PHANTOM2
 10
287.504667
 20
-12.381356
 40
0.371246
 50
58.732960
 51
89.510607
  0
LINE
  8
TENKA
  6
PHANTOM2
 10
222.213742
 20
-17.010124
 11
222.238608
 21
-16.034672
  0
LINE
  8
TENKA
  6
PHANTOM2
 10
222.238608
 20
-16.034672
 11
222.312250
 21
-15.096707
  0
LINE
  8
TENKA
  6
PHANTOM2
 10
222.312250
 20
-15.096707
 11
222.431837
 21
-14.232273
  0
LINE
  8
TENKA
  6
PHANTOM2
 10
222.431837
 20
-14.232273
 11
222.592774
 21
-13.474590
  0
LINE
  8
TENKA
  6
PHANTOM2
 10
222.592774
 20
-13.474590
 11
222.788877
 21
-12.852776
  0
LINE
  8
TENKA
  6
PHANTOM2
 10
222.788877
 20
-12.852776
 11
223.012609
 21
-12.390726
  0
LINE
  8
TENKA
  6
PHANTOM2
 10
223.012609
 20
-12.390726
 11
223.255372
 21
-12.106197
  0
LINE
  8
TENKA
  6
PHANTOM2
 10
223.255372
 20
-12.106197
 11
223.507838
 21
-12.010124
  0
LINE
  8
TENKA
  6
PHANTOM2
 10
291.872005
 20
-17.010124
 11
222.213742
 21
-17.010124
  0
CIRCLE
  8
TENKA
  6
PHANTOM2
 10
458.507838
 20
37.989876
 40
9.500000
  0
LINE
  8
OBRYS
 10
223.507838
 20
86.789876
 11
223.507838
 21
152.789876
  0
LINE
  8
OBRYS
 10
223.507838
 20
152.789876
 11
223.507838
 21
218.789876
  0
LINE
  8
OBRYS
 10
213.507838
 20
30.245065
 11
213.507838
 21
152.789876
  0
LINE
  8
OBRYS
 10
213.507838
 20
152.789876
 11
213.507838
 21
275.334687
  0
LINE
  8
OBRYS
 10
198.507838
 20
27.789876
 11
198.507838
 21
152.789876
  0
LINE
  8
OBRYS
 10
198.507838
 20
152.789876
 11
198.507838
 21
277.789876
  0
LINE
  8
OBRYS
 10
506.757838
 20
304.489876
 11
516.507838
 21
304.489876
  0
LINE
  8
OBRYS
 10
516.507838
 20
304.489876
 11
526.257838
 21
304.489876
  0
LINE
  8
OBRYS
 10
504.007838
 20
296.489876
 11
516.507838
 21
296.489876
  0
LINE
  8
OBRYS
 10
516.507838
 20
296.489876
 11
527.007838
 21
296.489876
  0
LINE
  8
OBRYS
 10
536.507838
 20
40.444468
 11
536.507838
 21
4.848761
  0
LINE
  8
OBRYS
 10
536.507838
 20
40.506833
 11
536.507838
 21
40.444468
  0
ARC
  8
OBRYS
 10
538.987769
 20
40.526530
 40
2.480009
 50
96.645493
 51
180.455060
  0
LINE
  8
OBRYS
 10
539.007838
 20
299.989876
 11
543.507838
 21
299.989876
  0
LINE
  8
OBRYS
 10
543.507838
 20
299.989876
 11
549.007838
 21
299.989876
  0
LINE
  8
OBRYS
 10
292.007838
 20
299.989876
 11
297.007838
 21
299.989876
  0
LINE
  8
OBRYS
 10
702.007838
 20
196.989876
 11
711.007838
 21
196.989876
  0
LINE
  8
OBRYS
 10
610.007838
 20
196.989876
 11
702.007838
 21
196.989876
  0
LINE
  8
OBRYS
 10
601.007838
 20
196.989876
 11
610.007838
 21
196.989876
  0
LINE
  8
OBRYS
 10
387.699075
 20
304.989876
 11
393.227252
 21
304.989876
  0
LINE
  8
OBRYS
 10
367.788423
 20
304.989876
 11
373.316600
 21
304.989876
  0
LINE
  8
OBRYS
 10
588.507838
 20
43.743634
 11
588.507838
 21
42.989876
  0
LINE
  8
OBRYS
 10
558.507838
 20
282.989876
 11
588.507838
 21
282.989876
  0
LINE
  8
OBRYS
 10
588.507838
 20
282.989876
 11
588.507838
 21
278.425655
  0
LINE
  8
OBRYS
 10
588.507838
 20
48.276448
 11
588.507838
 21
43.743634
  0
LINE
  8
OBRYS
 10
588.507838
 20
278.425655
 11
588.507838
 21
254.237099
  0
LINE
  8
OBRYS
 10
588.507838
 20
71.742653
 11
588.507838
 21
48.276448
  0
LINE
  8
OBRYS
 10
553.507838
 20
282.989876
 11
558.507838
 21
282.989876
  0
LINE
  8
OBRYS
 10
588.507838
 20
254.237099
 11
588.507838
 21
249.847457
  0
LINE
  8
OBRYS
 10
588.507838
 20
76.132296
 11
588.507838
 21
71.742653
  0
LINE
  8
OBRYS
 10
716.007838
 20
133.989876
 11
716.007838
 21
162.989876
  0
LINE
  8
OBRYS
 10
716.007838
 20
162.989876
 11
716.007838
 21
191.989876
  0
LINE
  8
OBRYS
 10
715.007838
 20
132.989876
 11
715.007838
 21
162.989876
  0
LINE
  8
OBRYS
 10
715.007838
 20
162.989876
 11
715.007838
 21
192.989876
  0
LINE
  8
OBRYS
 10
702.007838
 20
191.608052
 11
610.007838
 21
191.608052
  0
LINE
  8
OBRYS
 10
610.007838
 20
191.608052
 11
608.556784
 21
191.644816
  0
LINE
  8
OBRYS
 10
608.556784
 20
191.644816
 11
607.105731
 21
191.754824
  0
LINE
  8
OBRYS
 10
607.105731
 20
191.754824
 11
605.778262
 21
191.918915
  0
LINE
  8
OBRYS
 10
605.778262
 20
191.918915
 11
604.532374
 21
192.127150
  0
LINE
  8
OBRYS
 10
604.532374
 20
192.127150
 11
603.435427
 21
192.353060
  0
LINE
  8
OBRYS
 10
603.435427
 20
192.353060
 11
602.492958
 21
192.578276
  0
LINE
  8
OBRYS
 10
602.492958
 20
192.578276
 11
601.769011
 21
192.770378
  0
LINE
  8
OBRYS
 10
601.769011
 20
192.770378
 11
601.265664
 21
192.913539
  0
LINE
  8
OBRYS
 10
601.265664
 20
192.913539
 11
601.033299
 21
192.982248
  0
LINE
  8
OBRYS
 10
601.033299
 20
192.982248
 11
601.039900
 21
192.980274
  0
ARC
  8
OBRYS
 10
701.730224
 20
223.412733
 40
31.805892
 50
270.500106
 51
286.899075
  0
LINE
  8
OBRYS
 10
596.007838
 20
123.717817
 11
596.007838
 21
162.989876
  0
LINE
  8
OBRYS
 10
596.007838
 20
162.989876
 11
596.007838
 21
202.261936
  0
LINE
  8
OBRYS
 10
594.007838
 20
122.989876
 11
594.007838
 21
162.989876
  0
LINE
  8
OBRYS
 10
594.007838
 20
162.989876
 11
594.007838
 21
202.989876
  0
LINE
  8
OBRYS
 10
288.007838
 20
294.989876
 11
292.007838
 21
294.989876
  0
LINE
  8
OBRYS
 10
287.507838
 20
294.489876
 11
288.007838
 21
294.989876
  0
LINE
  8
OBRYS
 10
291.507838
 20
294.489876
 11
287.507838
 21
294.489876
  0
LINE
  8
OBRYS
 10
287.507838
 20
294.489876
 11
287.507838
 21
282.989876
  0
LINE
  8
OBRYS
 10
287.507838
 20
282.989876
 11
290.173912
 21
282.989876
  0
LINE
  8
OBRYS
 10
268.507838
 20
29.304935
 11
268.507838
 21
37.304935
  0
LINE
  8
OBRYS
 10
268.507838
 20
37.304935
 11
268.507838
 21
45.304935
  0
LINE
  8
OBRYS
 10
268.507838
 20
260.274818
 11
268.507838
 21
268.274818
  0
LINE
  8
OBRYS
 10
268.507838
 20
268.274818
 11
268.507838
 21
276.274818
  0
LINE
  8
OBRYS
 10
588.507838
 20
249.847457
 11
588.507838
 21
236.273844
  0
LINE
  8
OBRYS
 10
588.507838
 20
89.705909
 11
588.507838
 21
76.132296
  0
LINE
  8
OBRYS
 10
223.507838
 20
218.789876
 11
223.507838
 21
86.789876
  0
LINE
  8
OBRYS
 10
592.007838
 20
242.989876
 11
592.007838
 21
82.989876
  0
LINE
  8
OBRYS
 10
588.507838
 20
191.376722
 11
588.507838
 21
186.002483
  0
LINE
  8
OBRYS
 10
588.507838
 20
139.977269
 11
588.507838
 21
134.603031
  0
LINE
  8
OBRYS
 10
588.507838
 20
186.002483
 11
588.507838
 21
139.977269
  0
LINE
  8
OBRYS
 10
588.507838
 20
236.273844
 11
588.507838
 21
234.242712
  0
LINE
  8
OBRYS
 10
588.507838
 20
91.737041
 11
588.507838
 21
89.705909
  0
LINE
  8
OBRYS
 10
588.507838
 20
204.887797
 11
588.507838
 21
191.376722
  0
LINE
  8
OBRYS
 10
588.507838
 20
134.603031
 11
588.507838
 21
121.091955
  0
LINE
  8
OBRYS
 10
588.507838
 20
234.242712
 11
588.507838
 21
210.983283
  0
LINE
  8
OBRYS
 10
588.507838
 20
114.996469
 11
588.507838
 21
91.737041
  0
LINE
  8
OBRYS
 10
588.507838
 20
210.983283
 11
588.507838
 21
204.887797
  0
LINE
  8
OBRYS
 10
588.507838
 20
121.091955
 11
588.507838
 21
114.996469
  0
LINE
  8
OBRYS
 10
528.007838
 20
299.989876
 11
533.507838
 21
299.989876
  0
LINE
  8
OBRYS
 10
533.507838
 20
299.989876
 11
539.007838
 21
299.989876
  0
LINE
  8
OBRYS
 10
415.007838
 20
299.989876
 11
420.507838
 21
299.989876
  0
LINE
  8
OBRYS
 10
420.507838
 20
299.989876
 11
426.007838
 21
299.989876
  0
LINE
  8
OBRYS
 10
297.007838
 20
299.989876
 11
302.507838
 21
299.989876
  0
LINE
  8
OBRYS
 10
302.507838
 20
299.989876
 11
308.007838
 21
299.989876
  0
LINE
  8
OBRYS
 10
268.507838
 20
192.634597
 11
268.507838
 21
200.634597
  0
LINE
  8
OBRYS
 10
268.507838
 20
200.634597
 11
268.507838
 21
208.634597
  0
LINE
  8
OBRYS
 10
268.507838
 20
96.963739
 11
268.507838
 21
104.963739
  0
LINE
  8
OBRYS
 10
268.507838
 20
104.963739
 11
268.507838
 21
112.963739
  0
LINE
  8
OBRYS
 10
552.507838
 20
294.489876
 11
552.007838
 21
294.989876
  0
LINE
  8
OBRYS
 10
522.507838
 20
294.989876
 11
552.007838
 21
294.989876
  0
LINE
  8
OBRYS
 10
292.007838
 20
294.989876
 11
296.507838
 21
294.989876
  0
LINE
  8
OBRYS
 10
291.507838
 20
294.489876
 11
292.007838
 21
294.989876
  0
LINE
  8
OBRYS
 10
296.507838
 20
294.989876
 11
522.507838
 21
294.989876
  0
LINE
  8
OBRYS
 10
291.507838
 20
282.989876
 11
296.507838
 21
282.989876
  0
LINE
  8
OBRYS
 10
296.507838
 20
294.489876
 11
291.507838
 21
294.489876
  0
LINE
  8
OBRYS
 10
291.507838
 20
294.489876
 11
291.507838
 21
282.989876
  0
LINE
  8
OBRYS
 10
296.507838
 20
282.989876
 11
297.507838
 21
282.989876
  0
LINE
  8
OBRYS
 10
522.507838
 20
294.489876
 11
296.507838
 21
294.489876
  0
LINE
  8
OBRYS
 10
552.507838
 20
294.489876
 11
552.507838
 21
282.989876
  0
LINE
  8
OBRYS
 10
552.507838
 20
294.489876
 11
522.507838
 21
294.489876
  0
LINE
  8
OBRYS
 10
275.507838
 20
15.140303
 11
275.507838
 21
152.789876
  0
LINE
  8
OBRYS
 10
275.507838
 20
152.789876
 11
275.507838
 21
290.439449
  0
LINE
  8
OBRYS
 10
290.173912
 20
282.989876
 11
291.507838
 21
282.989876
  0
LINE
  8
OBRYS
 10
287.507838
 20
12.789876
 11
287.507838
 21
282.989876
  0
LINE
  8
OBRYS
 10
222.213742
 20
-62.010124
 11
218.507838
 21
-62.010124
  0
LINE
  8
OBRYS
 10
218.507838
 20
-62.010124
 11
218.507838
 21
-17.010124
  0
ARC
  8
OBRYS
 10
223.507838
 20
-17.010124
 40
5.000000
 50
90.000000
 51
180.000000
  0
ARC
  8
OBRYS
 10
578.507838
 20
-17.010124
 40
5.000000
 50
0.000000
 51
90.000000
  0
LINE
  8
OBRYS
 10
583.507838
 20
-62.010124
 11
579.801933
 21
-62.010124
  0
LINE
  8
OBRYS
 10
583.507838
 20
-17.010124
 11
583.507838
 21
-62.010124
  0
LINE
  8
OBRYS
 10
523.507838
 20
282.989876
 11
553.507838
 21
282.989876
  0
LINE
  8
OBRYS
 10
553.507838
 20
282.989876
 11
553.507838
 21
171.028352
  0
ARC
  8
OBRYS
 10
523.507838
 20
171.028352
 40
30.000000
 50
330.000000
 51
360.000000
  0
LINE
  8
OBRYS
 10
549.488600
 20
156.028352
 11
527.527076
 21
117.989876
  0
ARC
  8
OBRYS
 10
553.507838
 20
102.989876
 40
30.000000
 50
150.000000
 51
180.000000
  0
LINE
  8
OBRYS
 10
523.507838
 20
-7.117938
 11
523.507838
 21
-7.010124
  0
ARC
  8
OBRYS
 10
528.507838
 20
-7.010124
 40
5.000000
 50
180.000000
 51
270.000000
  0
ARC
  8
OBRYS
 10
287.507838
 20
-7.010124
 40
5.000000
 50
270.000000
 51
360.000000
  0
LINE
  8
OBRYS
 10
292.507838
 20
-7.010124
 11
292.507838
 21
-7.117938
  0
CIRCLE
  8
OBRYS
 10
458.507838
 20
37.989876
 40
12.500000
  0
LINE
  8
OBRYS
 10
579.801933
 20
-62.010124
 11
524.143670
 21
-62.010124
  0
LINE
  8
OBRYS
 10
291.872005
 20
-62.010124
 11
222.213742
 21
-62.010124
  0
LINE
  8
OBRYS
 10
524.143670
 20
-62.010124
 11
522.849575
 21
-62.010124
  0
ARC
  8
OBRYS
 10
483.507838
 20
-62.010124
 40
5.000000
 50
0.000000
 51
90.000000
  0
LINE
  8
OBRYS
 10
523.507838
 20
2.989876
 11
523.507838
 21
-7.117938
  0
ARC
  8
OBRYS
 10
415.507838
 20
-62.010124
 40
5.000000
 50
90.000000
 51
180.000000
  0
LINE
  8
OBRYS
 10
483.507838
 20
-57.010124
 11
415.507838
 21
-57.010124
  0
LINE
  8
OBRYS
 10
292.507838
 20
-7.117938
 11
292.507838
 21
2.989876
  0
LINE
  8
OBRYS
 10
293.166100
 20
-62.010124
 11
291.872005
 21
-62.010124
  0
LINE
  8
OBRYS
 10
410.507838
 20
-62.010124
 11
293.166100
 21
-62.010124
  0
LINE
  8
OBRYS
 10
410.507838
 20
-62.010124
 11
410.507838
 21
-60.670378
  0
LINE
  8
OBRYS
 10
410.507838
 20
-60.670378
 11
410.954625
 21
-58.170378
  0
LINE
  8
OBRYS
 10
410.954625
 20
-58.170378
 11
411.672117
 21
-56.607925
  0
LINE
  8
OBRYS
 10
411.672117
 20
-56.607925
 11
412.649866
 21
-55.137161
  0
LINE
  8
OBRYS
 10
412.649866
 20
-55.137161
 11
415.497838
 21
-52.020124
  0
LINE
  8
OBRYS
 10
415.497838
 20
-52.020124
 11
415.507838
 21
-52.010124
  0
LINE
  8
OBRYS
 10
483.507838
 20
-52.010124
 11
483.517838
 21
-52.020124
  0
LINE
  8
OBRYS
 10
483.517838
 20
-52.020124
 11
486.365809
 21
-55.137161
  0
LINE
  8
OBRYS
 10
486.365809
 20
-55.137161
 11
487.322446
 21
-56.570789
  0
LINE
  8
OBRYS
 10
487.322446
 20
-56.570789
 11
488.061050
 21
-58.170378
  0
LINE
  8
OBRYS
 10
488.061050
 20
-58.170378
 11
488.507838
 21
-60.670378
  0
LINE
  8
OBRYS
 10
488.507838
 20
-62.010124
 11
488.507838
 21
-60.670378
  0
LINE
  8
OBRYS
 10
522.849575
 20
-62.010124
 11
488.507838
 21
-62.010124
  0
LINE
  8
OBRYS
 10
292.507838
 20
2.989876
 11
292.507838
 21
282.989876
  0
LINE
  8
OBRYS
 10
523.507838
 20
102.989876
 11
523.507838
 21
2.989876
  0
LINE
  8
OBRYS
 10
297.507838
 20
282.989876
 11
522.507838
 21
282.989876
  0
LINE
  8
OBRYS
 10
522.507838
 20
282.989876
 11
523.507838
 21
282.989876
  0
CIRCLE
  8
OBRYS
 10
458.507918
 20
37.989116
 40
14.999240
  0
ARC
  8
OBRYS
 10
518.354352
 20
-20.803627
 40
6.789012
 50
48.537316
 51
65.432144
  0
ARC
  8
OBRYS
 10
486.024233
 20
-53.835466
 40
53.001862
 50
44.010754
 51
45.989246
  0
LINE
  8
OBRYS
 10
528.507838
 20
-12.010124
 11
578.507838
 21
-12.010124
  0
ARC
  8
OBRYS
 10
524.196015
 20
-9.107232
 40
6.293388
 50
205.333324
 51
241.333643
  0
LINE
  8
OBRYS
 10
523.507838
 20
-7.117938
 11
523.599344
 21
-8.060550
  0
LINE
  8
OBRYS
 10
523.599344
 20
-8.060550
 11
523.689410
 21
-8.439690
  0
LINE
  8
OBRYS
 10
292.507838
 20
-7.117938
 11
292.416332
 21
-8.060550
  0
LINE
  8
OBRYS
 10
292.416332
 20
-8.060550
 11
292.271501
 21
-8.621691
  0
ARC
  8
OBRYS
 10
291.812040
 20
-9.100043
 40
6.303353
 50
298.695784
 51
334.637248
  0
ARC
  8
OBRYS
 10
297.211464
 20
-20.111308
 40
5.973562
 50
113.404438
 51
132.626102
  0
LINE
  8
OBRYS
 10
223.507838
 20
-12.010124
 11
287.507838
 21
-12.010124
  0
ARC
  8
OBRYS
 10
329.991442
 20
-53.835466
 40
53.001862
 50
134.010754
 51
135.989246
  0
LINE
  8
OBRYS
 10
462.507838
 20
40.299277
 11
458.507838
 21
42.608678
  0
LINE
  8
OBRYS
 10
462.507838
 20
35.680475
 11
462.507838
 21
40.299277
  0
LINE
  8
OBRYS
 10
458.507838
 20
33.371074
 11
462.507838
 21
35.680475
  0
LINE
  8
OBRYS
 10
454.507838
 20
35.680475
 11
458.507838
 21
33.371074
  0
LINE
  8
OBRYS
 10
454.507838
 20
40.299277
 11
454.507838
 21
35.680475
  0
LINE
  8
OBRYS
 10
458.507838
 20
42.608678
 11
454.507838
 21
40.299277
  0
CIRCLE
  8
OBRYS
 10
458.507838
 20
37.989876
 40
10.500000
  0
LINE
  8
OBRYS
 10
223.507838
 20
218.789876
 11
216.403139
 21
219.037978
  0
LINE
  8
OBRYS
 10
216.403139
 20
86.541775
 11
223.507838
 21
86.789876
  0
ARC
  8
OBRYS
 10
216.507838
 20
222.036150
 40
3.000000
 50
180.000000
 51
268.000000
  0
ARC
  8
OBRYS
 10
216.507838
 20
83.543602
 40
3.000000
 50
92.000000
 51
180.000000
  0
ARC
  8
OBRYS
 10
211.507838
 20
275.334687
 40
2.000000
 50
0.000000
 51
88.000000
  0
ARC
  8
OBRYS
 10
211.507838
 20
30.245065
 40
2.000000
 50
272.000000
 51
360.000000
  0
LINE
  8
OBRYS
 10
211.577637
 20
277.333469
 11
198.507838
 21
277.789876
  0
LINE
  8
OBRYS
 10
198.507838
 20
27.789876
 11
211.577637
 21
28.246284
  0
LINE
  8
OBRYS
 10
506.007838
 20
303.739876
 11
506.007838
 21
296.489876
  0
LINE
  8
OBRYS
 10
527.007838
 20
298.989876
 11
527.007838
 21
303.739876
  0
ARC
  8
OBRYS
 10
526.257838
 20
303.739876
 40
0.750000
 50
0.000000
 51
90.000000
  0
ARC
  8
OBRYS
 10
506.757838
 20
303.739876
 40
0.750000
 50
90.000000
 51
180.000000
  0
LINE
  8
OBRYS
 10
504.007838
 20
296.489876
 11
504.007838
 21
294.989876
  0
LINE
  8
OBRYS
 10
387.690085
 20
305.027234
 11
387.497639
 21
305.032491
  0
ARC
  8
OBRYS
 10
531.507838
 20
4.848761
 40
5.000000
 50
272.000000
 51
360.000000
  0
LINE
  8
OBRYS
 10
528.333340
 20
-0.265143
 11
531.682335
 21
-0.148194
  0
ARC
  8
OBRYS
 10
528.507838
 20
-5.262097
 40
5.000000
 50
92.000000
 51
180.000000
  0
ARC
  8
OBRYS
 10
549.007838
 20
298.989876
 40
1.000000
 50
0.000000
 51
90.000000
  0
LINE
  8
OBRYS
 10
550.007838
 20
294.989876
 11
550.007838
 21
298.989876
  0
LINE
  8
OBRYS
 10
291.007838
 20
298.989876
 11
291.007838
 21
294.989876
  0
ARC
  8
OBRYS
 10
292.007838
 20
298.989876
 40
1.000000
 50
90.000000
 51
180.000000
  0
LINE
  8
OBRYS
 10
711.007838
 20
192.980275
 11
711.007838
 21
196.989876
  0
LINE
  8
OBRYS
 10
601.007838
 20
196.989876
 11
601.007838
 21
192.980275
  0
ARC
  8
OBRYS
 10
393.227252
 20
302.989876
 40
2.000000
 50
2.000000
 51
90.000000
  0
ARC
  8
OBRYS
 10
367.788423
 20
302.989876
 40
2.000000
 50
90.000000
 51
178.000000
  0
LINE
  8
OBRYS
 10
528.507838
 20
42.989876
 11
588.507838
 21
42.989876
  0
ARC
  8
OBRYS
 10
528.507838
 20
37.989876
 40
5.000000
 50
90.000000
 51
180.000000
  0
LINE
  8
OBRYS
 10
387.681269
 20
305.024408
 11
387.406009
 21
305.015915
  0
LINE
  8
OBRYS
 10
387.406009
 20
305.015915
 11
386.874721
 21
305.218693
  0
LINE
  8
OBRYS
 10
386.874721
 20
305.218693
 11
386.582820
 21
305.465035
  0
LINE
  8
OBRYS
 10
386.582820
 20
305.465035
 11
386.473348
 21
305.627835
  0
LINE
  8
OBRYS
 10
386.473348
 20
305.627835
 11
386.473652
 21
305.621678
  0
ARC
  8
OBRYS
 10
373.431030
 20
306.292520
 40
1.283832
 50
264.642948
 51
316.626471
  0
LINE
  8
OBRYS
 10
365.789641
 20
303.059675
 11
365.507838
 21
294.989876
  0
LINE
  8
OBRYS
 10
395.507838
 20
294.989876
 11
395.226034
 21
303.059675
  0
LINE
  8
OBRYS
 10
386.507838
 20
305.216715
 11
386.507838
 21
341.989876
  0
LINE
  8
OBRYS
 10
374.507838
 20
341.989876
 11
374.507838
 21
305.216463
  0
ARC
  8
OBRYS
 10
380.507838
 20
341.989876
 40
6.000000
 50
0.000000
 51
180.000000
  0
LINE
  8
OBRYS
 10
716.007838
 20
191.989876
 11
715.007838
 21
192.989876
  0
LINE
  8
OBRYS
 10
715.007838
 20
132.989876
 11
716.007838
 21
133.989876
  0
LINE
  8
OBRYS
 10
715.007838
 20
192.989876
 11
710.975775
 21
192.989876
  0
LINE
  8
OBRYS
 10
601.039900
 20
192.989876
 11
596.007838
 21
192.989876
  0
LINE
  8
OBRYS
 10
596.007838
 20
132.989876
 11
715.007838
 21
132.989876
  0
LINE
  8
OBRYS
 10
596.007838
 20
202.261936
 11
594.007838
 21
202.989876
  0
LINE
  8
OBRYS
 10
594.007838
 20
122.989876
 11
596.007838
 21
123.717817
  0
LINE
  8
OBRYS
 10
594.007838
 20
202.989876
 11
592.007838
 21
202.989876
  0
LINE
  8
OBRYS
 10
592.007838
 20
122.989876
 11
594.007838
 21
122.989876
  0
ARC
  8
OBRYS
 10
269.507838
 20
45.304935
 40
1.000000
 50
90.000000
 51
180.000000
  0
ARC
  8
OBRYS
 10
269.507838
 20
29.304935
 40
1.000000
 50
180.000000
 51
270.000000
  0
LINE
  8
OBRYS
 10
269.507838
 20
28.304935
 11
275.507838
 21
28.304935
  0
LINE
  8
OBRYS
 10
275.507838
 20
46.304935
 11
269.507838
 21
46.304935
  0
ARC
  8
OBRYS
 10
269.507838
 20
276.274818
 40
1.000000
 50
90.000000
 51
180.000000
  0
ARC
  8
OBRYS
 10
269.507838
 20
260.274818
 40
1.000000
 50
180.000000
 51
270.000000
  0
LINE
  8
OBRYS
 10
269.507838
 20
259.274818
 11
275.507838
 21
259.274818
  0
LINE
  8
OBRYS
 10
275.507838
 20
277.274818
 11
269.507838
 21
277.274818
  0
LINE
  8
OBRYS
 10
223.507838
 20
86.789876
 11
227.415927
 21
86.789876
  0
LINE
  8
OBRYS
 10
227.415927
 20
218.789876
 11
223.507838
 21
218.789876
  0
ARC
  8
OBRYS
 10
227.415927
 20
83.789876
 40
3.000000
 50
50.000000
 51
90.000000
  0
ARC
  8
OBRYS
 10
227.415927
 20
221.789876
 40
3.000000
 50
270.000000
 51
310.000000
  0
LINE
  8
OBRYS
 10
592.007838
 20
242.989876
 11
588.507838
 21
242.989876
  0
LINE
  8
OBRYS
 10
588.507838
 20
82.989876
 11
592.007838
 21
82.989876
  0
LINE
  8
OBRYS
 10
588.507838
 20
236.273844
 11
558.507838
 21
236.273844
  0
LINE
  8
OBRYS
 10
528.507838
 20
89.705909
 11
588.507838
 21
89.705909
  0
ARC
  8
OBRYS
 10
558.507838
 20
241.273844
 40
5.000000
 50
180.000000
 51
270.000000
  0
ARC
  8
OBRYS
 10
528.507838
 20
84.705909
 40
5.000000
 50
90.000000
 51
180.000000
  0
LINE
  8
OBRYS
 10
229.344290
 20
86.088009
 11
274.436200
 21
48.251404
  0
LINE
  8
OBRYS
 10
274.436200
 20
257.328348
 11
229.344290
 21
219.491743
  0
ARC
  8
OBRYS
 10
272.507838
 20
259.626482
 40
3.000000
 50
310.000000
 51
353.268234
  0
ARC
  8
OBRYS
 10
272.507838
 20
45.953270
 40
3.000000
 50
6.731766
 51
50.000000
  0
ARC
  8
OBRYS
 10
539.007838
 20
298.989876
 40
1.000000
 50
0.000000
 51
90.000000
  0
ARC
  8
OBRYS
 10
528.007838
 20
298.989876
 40
1.000000
 50
90.000000
 51
180.000000
  0
LINE
  8
OBRYS
 10
527.007838
 20
298.989876
 11
527.007838
 21
294.989876
  0
LINE
  8
OBRYS
 10
540.007838
 20
294.989876
 11
540.007838
 21
298.989876
  0
LINE
  8
OBRYS
 10
414.007838
 20
298.989876
 11
414.007838
 21
294.989876
  0
LINE
  8
OBRYS
 10
427.007838
 20
294.989876
 11
427.007838
 21
298.989876
  0
ARC
  8
OBRYS
 10
426.007838
 20
298.989876
 40
1.000000
 50
0.000000
 51
90.000000
  0
ARC
  8
OBRYS
 10
415.007838
 20
298.989876
 40
1.000000
 50
90.000000
 51
180.000000
  0
ARC
  8
OBRYS
 10
308.007838
 20
298.989876
 40
1.000000
 50
0.000000
 51
90.000000
  0
ARC
  8
OBRYS
 10
297.007838
 20
298.989876
 40
1.000000
 50
90.000000
 51
180.000000
  0
LINE
  8
OBRYS
 10
296.007838
 20
298.989876
 11
296.007838
 21
294.989876
  0
LINE
  8
OBRYS
 10
309.007838
 20
294.989876
 11
309.007838
 21
298.989876
  0
LINE
  8
OBRYS
 10
269.507838
 20
191.634597
 11
275.507838
 21
191.634597
  0
LINE
  8
OBRYS
 10
275.507838
 20
209.634597
 11
269.507838
 21
209.634597
  0
ARC
  8
OBRYS
 10
269.507838
 20
208.634597
 40
1.000000
 50
90.000000
 51
180.000000
  0
ARC
  8
OBRYS
 10
269.507838
 20
192.634597
 40
1.000000
 50
180.000000
 51
270.000000
  0
LINE
  8
OBRYS
 10
269.507838
 20
95.963739
 11
275.507838
 21
95.963739
  0
LINE
  8
OBRYS
 10
275.507838
 20
113.963739
 11
269.507838
 21
113.963739
  0
ARC
  8
OBRYS
 10
269.507838
 20
112.963739
 40
1.000000
 50
90.000000
 51
180.000000
  0
ARC
  8
OBRYS
 10
269.507838
 20
96.963739
 40
1.000000
 50
180.000000
 51
270.000000
  0
ARC
  8
OBRYS
 10
277.507838
 20
290.439449
 40
2.000000
 50
92.000000
 51
180.000000
  0
ARC
  8
OBRYS
 10
277.507838
 20
15.140303
 40
2.000000
 50
180.000000
 51
268.000000
  0
LINE
  8
OBRYS
 10
277.438039
 20
13.141521
 11
287.507838
 21
12.789876
  0
LINE
  8
OBRYS
 10
287.507838
 20
292.789876
 11
277.438039
 21
292.438231
  0
ARC
  8
OBRYS
 10
287.507838
 20
7.789876
 40
5.000000
 50
0.000000
 51
90.000000
  0
LINE
  8
TENKA
  6
PHANTOM2
 10
-468.130718
 20
219.037978
 11
-468.130718
 21
86.541775
  0
LINE
  8
TENKA
  6
PHANTOM2
 10
-463.305216
 20
277.333469
 11
-463.305216
 21
28.246284
  0
LINE
  8
TENKA
  6
PHANTOM2
 10
-791.735417
 20
298.989876
 11
-801.735417
 21
298.989876
  0
LINE
  8
TENKA
  6
PHANTOM2
 10
-542.735417
 20
298.989876
 11
-547.735417
 21
298.989876
  0
LINE
  8
TENKA
  6
PHANTOM2
 10
-953.735417
 20
196.989876
 11
-953.735417
 21
191.608052
  0
LINE
  8
TENKA
  6
PHANTOM2
 10
-861.735417
 20
196.989876
 11
-861.735417
 21
191.608052
  0
LINE
  8
TENKA
  6
PHANTOM2
 10
-639.426654
 20
304.989876
 11
-639.215595
 21
305.002001
  0
LINE
  8
TENKA
  6
PHANTOM2
 10
-625.203531
 20
304.996779
 11
-625.044180
 21
304.989876
  0
LINE
  8
TENKA
  6
PHANTOM2
 10
-791.235417
 20
43.079723
 11
-791.235417
 21
43.743634
  0
LINE
  8
TENKA
  6
PHANTOM2
 10
-791.235417
 20
43.743634
 11
-840.235417
 21
43.743634
  0
ARC
  8
TENKA
  6
PHANTOM2
 10
-627.581964
 20
304.537504
 40
2.577787
 50
325.019779
 51
10.107085
  0
ARC
  8
TENKA
  6
PHANTOM2
 10
-637.213193
 20
304.465980
 40
2.274616
 50
166.683921
 51
218.189215
  0
LINE
  8
TENKA
  6
PHANTOM2
 10
-639.000980
 20
303.059675
 11
-646.953613
 21
303.059675
  0
LINE
  8
TENKA
  6
PHANTOM2
 10
-617.517220
 20
303.059675
 11
-625.469854
 21
303.059675
  0
ARC
  8
TENKA
  6
PHANTOM2
 10
-624.866707
 20
305.532948
 40
2.545755
 50
230.902846
 51
256.295017
  0
ARC
  8
TENKA
  6
PHANTOM2
 10
-639.604127
 20
305.532948
 40
2.545755
 50
283.704983
 51
309.097154
  0
ARC
  8
TENKA
  6
PHANTOM2
 10
-632.235417
 20
304.224948
 40
6.865181
 50
189.772509
 51
350.227491
  0
ARC
  8
TENKA
  6
PHANTOM2
 10
-791.226024
 20
40.753026
 40
2.990623
 50
0.181082
 51
90.179944
  0
LINE
  8
TENKA
  6
PHANTOM2
 10
-791.235417
 20
43.743634
 11
-791.235417
 21
44.050774
  0
LINE
  8
TENKA
  6
PHANTOM2
 10
-810.235417
 20
278.425655
 11
-840.235417
 21
278.425655
  0
LINE
  8
TENKA
  6
PHANTOM2
 10
-810.235417
 20
278.425655
 11
-810.235417
 21
282.989876
  0
LINE
  8
TENKA
  6
PHANTOM2
 10
-810.235417
 20
254.237099
 11
-840.235417
 21
254.237099
  0
LINE
  8
TENKA
  6
PHANTOM2
 10
-810.235417
 20
249.847457
 11
-810.235417
 21
254.237099
  0
ARC
  8
TENKA
  6
PHANTOM2
 10
-808.994912
 20
293.094630
 40
14.721335
 50
265.166194
 51
284.795945
  0
LINE
  8
TENKA
  6
PHANTOM2
 10
-810.235417
 20
254.237099
 11
-810.235417
 21
278.425655
  0
ARC
  8
TENKA
  6
PHANTOM2
 10
-808.994912
 20
268.906075
 40
14.721335
 50
265.166194
 51
284.795945
  0
ARC
  8
TENKA
  6
PHANTOM2
 10
-634.308330
 20
304.900037
 40
3.927056
 50
175.788440
 51
199.994725
  0
ARC
  8
TENKA
  6
PHANTOM2
 10
-632.235417
 20
304.982539
 40
5.936890
 50
193.890925
 51
346.109075
  0
ARC
  8
TENKA
  6
PHANTOM2
 10
-632.207105
 20
305.166771
 40
5.956529
 50
344.323112
 51
1.354392
  0
LINE
  8
TENKA
  6
PHANTOM2
 10
-521.235417
 20
28.304935
 11
-521.235417
 21
46.304935
  0
LINE
  8
TENKA
  6
PHANTOM2
 10
-521.235417
 20
259.274818
 11
-521.235417
 21
277.274818
  0
LINE
  8
TENKA
  6
PHANTOM2
 10
-791.183060
 20
44.050653
 11
-791.183060
 21
89.740290
  0
LINE
  8
TENKA
  6
PHANTOM2
 10
-810.235417
 20
249.847457
 11
-840.235417
 21
249.847457
  0
LINE
  8
TENKA
  6
PHANTOM2
 10
-479.143506
 20
218.789876
 11
-479.143506
 21
152.789876
  0
LINE
  8
TENKA
  6
PHANTOM2
 10
-479.143506
 20
152.789876
 11
-479.143506
 21
86.789876
  0
ARC
  8
TENKA
  6
PHANTOM2
 10
-810.149651
 20
254.761746
 40
4.915038
 50
269.000160
 51
358.963983
  0
LINE
  8
TENKA
  6
PHANTOM2
 10
-810.235417
 20
236.273844
 11
-810.235417
 21
249.847457
  0
LINE
  8
TENKA
  6
PHANTOM2
 10
-757.735417
 20
303.739876
 11
-778.735417
 21
303.739876
  0
LINE
  8
TENKA
  6
PHANTOM2
 10
-810.235417
 20
186.002483
 11
-840.235417
 21
186.002483
  0
LINE
  8
TENKA
  6
PHANTOM2
 10
-796.984455
 20
139.977269
 11
-840.235417
 21
139.977269
  0
LINE
  8
TENKA
  6
PHANTOM2
 10
-796.984455
 20
134.603031
 11
-796.984455
 21
139.977269
  0
LINE
  8
TENKA
  6
PHANTOM2
 10
-810.235417
 20
186.002483
 11
-810.235417
 21
191.376722
  0
LINE
  8
TENKA
  6
PHANTOM2
 10
-796.984455
 20
139.977269
 11
-805.546306
 21
154.026327
  0
LINE
  8
TENKA
  6
PHANTOM2
 10
-792.654328
 20
141.198791
 11
-792.824647
 21
141.331648
  0
LINE
  8
TENKA
  6
PHANTOM2
 10
-792.824647
 20
141.331648
 11
-793.129865
 21
141.379124
  0
LINE
  8
TENKA
  6
PHANTOM2
 10
-793.129865
 20
141.379124
 11
-793.560083
 21
141.339680
  0
LINE
  8
TENKA
  6
PHANTOM2
 10
-793.560083
 20
141.339680
 11
-794.101350
 21
141.214594
  0
LINE
  8
TENKA
  6
PHANTOM2
 10
-794.101350
 20
141.214594
 11
-794.736114
 21
141.007923
  0
LINE
  8
TENKA
  6
PHANTOM2
 10
-794.736114
 20
141.007923
 11
-795.443788
 21
140.726370
  0
LINE
  8
TENKA
  6
PHANTOM2
 10
-795.443788
 20
140.726370
 11
-796.201425
 21
140.379064
  0
LINE
  8
TENKA
  6
PHANTOM2
 10
-796.201425
 20
140.379064
 11
-796.984455
 21
139.977269
  0
LINE
  8
TENKA
  6
PHANTOM2
 10
-805.235417
 20
187.280961
 11
-805.331490
 21
187.031543
  0
LINE
  8
TENKA
  6
PHANTOM2
 10
-805.331490
 20
187.031543
 11
-805.616019
 21
186.791709
  0
LINE
  8
TENKA
  6
PHANTOM2
 10
-805.616019
 20
186.791709
 11
-806.078069
 21
186.570677
  0
LINE
  8
TENKA
  6
PHANTOM2
 10
-806.078069
 20
186.570677
 11
-806.699883
 21
186.376941
  0
LINE
  8
TENKA
  6
PHANTOM2
 10
-806.699883
 20
186.376941
 11
-807.457566
 21
186.217946
  0
LINE
  8
TENKA
  6
PHANTOM2
 10
-807.457566
 20
186.217946
 11
-808.322000
 21
186.099802
  0
LINE
  8
TENKA
  6
PHANTOM2
 10
-808.322000
 20
186.099802
 11
-809.259965
 21
186.027049
  0
LINE
  8
TENKA
  6
PHANTOM2
 10
-809.259965
 20
186.027049
 11
-810.235417
 21
186.002483
  0
LINE
  8
TENKA
  6
PHANTOM2
 10
-810.235417
 20
170.605274
 11
-810.235417
 21
186.002483
  0
ARC
  8
TENKA
  6
PHANTOM2
 10
-808.994367
 20
185.695284
 40
15.140957
 50
265.298395
 51
284.374789
  0
ARC
  8
TENKA
  6
PHANTOM2
 10
-778.414993
 20
170.652616
 40
31.820459
 50
180.085243
 51
211.500305
  0
ARC
  8
TENKA
  6
PHANTOM2
 10
-797.659583
 20
142.652114
 40
13.840994
 50
104.889815
 51
124.736906
  0
ARC
  8
TENKA
  6
PHANTOM2
 10
-784.543735
 20
76.244325
 40
11.250079
 50
83.953733
 51
109.156355
  0
LINE
  8
TENKA
  6
PHANTOM2
 10
-791.235417
 20
89.706041
 11
-791.235417
 21
91.605352
  0
LINE
  8
TENKA
  6
PHANTOM2
 10
-783.358747
 20
87.431822
 11
-783.474189
 21
88.332419
  0
LINE
  8
TENKA
  6
PHANTOM2
 10
-783.474189
 20
88.332419
 11
-783.862281
 21
89.150538
  0
LINE
  8
TENKA
  6
PHANTOM2
 10
-783.862281
 20
89.150538
 11
-784.687586
 21
90.007861
  0
LINE
  8
TENKA
  6
PHANTOM2
 10
-784.687586
 20
90.007861
 11
-786.398945
 21
90.906288
  0
LINE
  8
TENKA
  6
PHANTOM2
 10
-786.398945
 20
90.906288
 11
-789.895080
 21
91.572319
  0
LINE
  8
TENKA
  6
PHANTOM2
 10
-789.895080
 20
91.572319
 11
-791.235417
 21
91.605352
  0
LINE
  8
TENKA
  6
PHANTOM2
 10
-783.358747
 20
87.431822
 11
-783.395049
 21
85.496290
  0
LINE
  8
TENKA
  6
PHANTOM2
 10
-783.395049
 20
85.496290
 11
-783.409914
 21
84.304961
  0
LINE
  8
TENKA
  6
PHANTOM2
 10
-791.235417
 20
91.605352
 11
-784.044603
 21
91.698136
  0
LINE
  8
TENKA
  6
PHANTOM2
 10
-784.044603
 20
91.698136
 11
-781.078500
 21
91.737041
  0
ARC
  8
TENKA
  6
PHANTOM2
 10
-1031.664973
 20
80.924940
 40
250.819620
 50
0.788489
 51
2.470619
  0
LINE
  8
TENKA
  6
PHANTOM2
 10
-810.235417
 20
234.242712
 11
-810.235417
 21
236.273844
  0
ARC
  8
TENKA
  6
PHANTOM2
 10
-1081.216043
 20
80.942768
 40
301.174961
 50
0.657607
 51
2.058384
  0
LINE
  8
TENKA
  6
PHANTOM2
 10
-481.071869
 20
86.088009
 11
-481.071869
 21
152.789876
  0
LINE
  8
TENKA
  6
PHANTOM2
 10
-481.071869
 20
152.789876
 11
-481.071869
 21
219.491743
  0
LINE
  8
TENKA
  6
PHANTOM2
 10
-526.163780
 20
95.945156
 11
-526.163780
 21
48.251404
  0
LINE
  8
TENKA
  6
PHANTOM2
 10
-526.163780
 20
191.616014
 11
-526.163780
 21
113.945156
  0
LINE
  8
TENKA
  6
PHANTOM2
 10
-526.163780
 20
257.328348
 11
-526.163780
 21
209.616014
  0
LINE
  8
TENKA
  6
PHANTOM2
 10
-810.235417
 20
191.376722
 11
-840.235417
 21
191.376722
  0
LINE
  8
TENKA
  6
PHANTOM2
 10
-796.984455
 20
134.603031
 11
-840.235417
 21
134.603031
  0
LINE
  8
TENKA
  6
PHANTOM2
 10
-788.235417
 20
81.141569
 11
-788.143553
 21
81.745541
  0
LINE
  8
TENKA
  6
PHANTOM2
 10
-788.143553
 20
81.745541
 11
-787.871336
 21
82.327319
  0
LINE
  8
TENKA
  6
PHANTOM2
 10
-787.871336
 20
82.327319
 11
-787.428770
 21
82.865526
  0
LINE
  8
TENKA
  6
PHANTOM2
 10
-787.428770
 20
82.865526
 11
-786.832116
 21
83.340385
  0
LINE
  8
TENKA
  6
PHANTOM2
 10
-786.832116
 20
83.340385
 11
-786.103299
 21
83.734448
  0
LINE
  8
TENKA
  6
PHANTOM2
 10
-786.103299
 20
83.734448
 11
-785.269100
 21
84.033233
  0
LINE
  8
TENKA
  6
PHANTOM2
 10
-785.269100
 20
84.033233
 11
-784.360172
 21
84.225762
  0
LINE
  8
TENKA
  6
PHANTOM2
 10
-784.360172
 20
84.225762
 11
-783.409914
 21
84.304961
  0
LINE
  8
TENKA
  6
PHANTOM2
 10
-780.060919
 20
84.399403
 11
-780.869103
 21
84.376544
  0
LINE
  8
TENKA
  6
PHANTOM2
 10
-780.869103
 20
84.376544
 11
-783.409914
 21
84.304961
  0
LINE
  8
TENKA
  6
PHANTOM2
 10
-783.409914
 20
84.304961
 11
-783.409914
 21
-0.148194
  0
LINE
  8
TENKA
  6
PHANTOM2
 10
-775.235417
 20
88.792425
 11
-775.331490
 21
89.371433
  0
LINE
  8
TENKA
  6
PHANTOM2
 10
-775.331490
 20
89.371433
 11
-775.616019
 21
89.928191
  0
LINE
  8
TENKA
  6
PHANTOM2
 10
-775.616019
 20
89.928191
 11
-776.078069
 21
90.441301
  0
LINE
  8
TENKA
  6
PHANTOM2
 10
-776.078069
 20
90.441301
 11
-776.699883
 21
90.891046
  0
LINE
  8
TENKA
  6
PHANTOM2
 10
-776.699883
 20
90.891046
 11
-777.457566
 21
91.260142
  0
LINE
  8
TENKA
  6
PHANTOM2
 10
-777.457566
 20
91.260142
 11
-778.322000
 21
91.534405
  0
LINE
  8
TENKA
  6
PHANTOM2
 10
-778.322000
 20
91.534405
 11
-779.259965
 21
91.703296
  0
LINE
  8
TENKA
  6
PHANTOM2
 10
-779.259965
 20
91.703296
 11
-780.235417
 21
91.760323
  0
LINE
  8
TENKA
  6
PHANTOM2
 10
-810.235417
 20
234.242712
 11
-840.235417
 21
234.242712
  0
LINE
  8
TENKA
  6
PHANTOM2
 10
-810.235417
 20
204.887797
 11
-840.235417
 21
204.887797
  0
LINE
  8
TENKA
  6
PHANTOM2
 10
-810.235417
 20
210.983283
 11
-840.235417
 21
210.983283
  0
LINE
  8
TENKA
  6
PHANTOM2
 10
-789.183832
 20
121.091955
 11
-840.235417
 21
121.091955
  0
LINE
  8
TENKA
  6
PHANTOM2
 10
-810.235417
 20
191.376722
 11
-810.235417
 21
204.887797
  0
ARC
  8
TENKA
  6
PHANTOM2
 10
-809.824179
 20
186.778933
 40
4.616143
 50
6.243546
 51
95.111074
  0
LINE
  8
TENKA
  6
PHANTOM2
 10
-792.654328
 20
141.198791
 11
-792.308708
 21
140.291511
  0
LINE
  8
TENKA
  6
PHANTOM2
 10
-792.308708
 20
140.291511
 11
-792.251721
 21
139.285914
  0
LINE
  8
TENKA
  6
PHANTOM2
 10
-792.251721
 20
139.285914
 11
-792.486884
 21
138.244073
  0
LINE
  8
TENKA
  6
PHANTOM2
 10
-792.486884
 20
138.244073
 11
-792.999681
 21
137.230302
  0
LINE
  8
TENKA
  6
PHANTOM2
 10
-792.999681
 20
137.230302
 11
-793.758457
 21
136.307180
  0
LINE
  8
TENKA
  6
PHANTOM2
 10
-793.758457
 20
136.307180
 11
-794.716373
 21
135.531692
  0
LINE
  8
TENKA
  6
PHANTOM2
 10
-794.716373
 20
135.531692
 11
-795.814297
 21
134.951708
  0
LINE
  8
TENKA
  6
PHANTOM2
 10
-795.814297
 20
134.951708
 11
-796.984455
 21
134.603031
  0
LINE
  8
TENKA
  6
PHANTOM2
 10
-789.183832
 20
121.091955
 11
-796.984455
 21
134.603031
  0
LINE
  8
TENKA
  6
PHANTOM2
 10
-780.235417
 20
91.760323
 11
-780.235417
 21
105.389876
  0
LINE
  8
TENKA
  6
PHANTOM2
 10
-782.325537
 20
114.996469
 11
-840.235417
 21
114.996469
  0
LINE
  8
TENKA
  6
PHANTOM2
 10
-781.078500
 20
91.737041
 11
-840.235417
 21
91.737041
  0
LINE
  8
TENKA
  6
PHANTOM2
 10
-781.078500
 20
91.737041
 11
-780.235417
 21
91.760323
  0
LINE
  8
TENKA
  6
PHANTOM2
 10
-780.060919
 20
-0.265143
 11
-780.060919
 21
84.399403
  0
LINE
  8
TENKA
  6
PHANTOM2
 10
-775.235417
 20
87.564762
 11
-775.327281
 21
86.960414
  0
LINE
  8
TENKA
  6
PHANTOM2
 10
-775.327281
 20
86.960414
 11
-775.599498
 21
86.378274
  0
LINE
  8
TENKA
  6
PHANTOM2
 10
-775.599498
 20
86.378274
 11
-776.042064
 21
85.839733
  0
LINE
  8
TENKA
  6
PHANTOM2
 10
-776.042064
 20
85.839733
 11
-776.638718
 21
85.364578
  0
LINE
  8
TENKA
  6
PHANTOM2
 10
-776.638718
 20
85.364578
 11
-777.367535
 21
84.970271
  0
LINE
  8
TENKA
  6
PHANTOM2
 10
-777.367535
 20
84.970271
 11
-778.201734
 21
84.671300
  0
LINE
  8
TENKA
  6
PHANTOM2
 10
-778.201734
 20
84.671300
 11
-779.110662
 21
84.478651
  0
LINE
  8
TENKA
  6
PHANTOM2
 10
-779.110662
 20
84.478651
 11
-780.060919
 21
84.399403
  0
LINE
  8
TENKA
  6
PHANTOM2
 10
-805.235417
 20
237.211580
 11
-805.331490
 21
236.632382
  0
LINE
  8
TENKA
  6
PHANTOM2
 10
-805.331490
 20
236.632382
 11
-805.616019
 21
236.075443
  0
LINE
  8
TENKA
  6
PHANTOM2
 10
-805.616019
 20
236.075443
 11
-806.078069
 21
235.562165
  0
LINE
  8
TENKA
  6
PHANTOM2
 10
-806.078069
 20
235.562165
 11
-806.699883
 21
235.112273
  0
LINE
  8
TENKA
  6
PHANTOM2
 10
-806.699883
 20
235.112273
 11
-807.457566
 21
234.743056
  0
LINE
  8
TENKA
  6
PHANTOM2
 10
-807.457566
 20
234.743056
 11
-808.322000
 21
234.468703
  0
LINE
  8
TENKA
  6
PHANTOM2
 10
-808.322000
 20
234.468703
 11
-809.259965
 21
234.299758
  0
LINE
  8
TENKA
  6
PHANTOM2
 10
-809.259965
 20
234.299758
 11
-810.235417
 21
234.242712
  0
LINE
  8
TENKA
  6
PHANTOM2
 10
-810.235417
 20
210.983283
 11
-810.235417
 21
234.242712
  0
LINE
  8
TENKA
  6
PHANTOM2
 10
-805.235417
 20
212.983008
 11
-805.331490
 21
212.592881
  0
LINE
  8
TENKA
  6
PHANTOM2
 10
-805.331490
 20
212.592881
 11
-805.616019
 21
212.217747
  0
LINE
  8
TENKA
  6
PHANTOM2
 10
-805.616019
 20
212.217747
 11
-806.078069
 21
211.872020
  0
LINE
  8
TENKA
  6
PHANTOM2
 10
-806.078069
 20
211.872020
 11
-806.699883
 21
211.568989
  0
LINE
  8
TENKA
  6
PHANTOM2
 10
-806.699883
 20
211.568989
 11
-807.457566
 21
211.320297
  0
LINE
  8
TENKA
  6
PHANTOM2
 10
-807.457566
 20
211.320297
 11
-808.322000
 21
211.135503
  0
LINE
  8
TENKA
  6
PHANTOM2
 10
-808.322000
 20
211.135503
 11
-809.259965
 21
211.021707
  0
LINE
  8
TENKA
  6
PHANTOM2
 10
-809.259965
 20
211.021707
 11
-810.235417
 21
210.983283
  0
LINE
  8
TENKA
  6
PHANTOM2
 10
-810.235417
 20
204.887797
 11
-810.235417
 21
210.983283
  0
ARC
  8
TENKA
  6
PHANTOM2
 10
-809.824179
 20
200.290009
 40
4.616143
 50
6.243546
 51
95.111074
  0
LINE
  8
TENKA
  6
PHANTOM2
 10
-784.853705
 20
127.687715
 11
-784.508085
 21
126.780436
  0
LINE
  8
TENKA
  6
PHANTOM2
 10
-784.508085
 20
126.780436
 11
-784.451098
 21
125.774838
  0
LINE
  8
TENKA
  6
PHANTOM2
 10
-784.451098
 20
125.774838
 11
-784.686261
 21
124.732997
  0
LINE
  8
TENKA
  6
PHANTOM2
 10
-784.686261
 20
124.732997
 11
-785.199058
 21
123.719226
  0
LINE
  8
TENKA
  6
PHANTOM2
 10
-785.199058
 20
123.719226
 11
-785.957834
 21
122.796105
  0
LINE
  8
TENKA
  6
PHANTOM2
 10
-785.957834
 20
122.796105
 11
-786.915750
 21
122.020616
  0
LINE
  8
TENKA
  6
PHANTOM2
 10
-786.915750
 20
122.020616
 11
-788.013674
 21
121.440632
  0
LINE
  8
TENKA
  6
PHANTOM2
 10
-788.013674
 20
121.440632
 11
-789.183832
 21
121.091955
  0
LINE
  8
TENKA
  6
PHANTOM2
 10
-783.584782
 20
116.243035
 11
-789.183832
 21
121.091955
  0
ARC
  8
TENKA
  6
PHANTOM2
 10
-778.121707
 20
108.941236
 40
9.119291
 50
97.136660
 51
126.803174
  0
LINE
  8
TENKA
  6
PHANTOM2
 10
-782.325537
 20
114.996469
 11
-783.584782
 21
116.243035
  0
LINE
  8
TENKA
  6
PHANTOM2
 10
-777.743561
 20
114.998118
 11
-777.944842
 21
115.265414
  0
LINE
  8
TENKA
  6
PHANTOM2
 10
-777.944842
 20
115.265414
 11
-778.281857
 21
115.462418
  0
LINE
  8
TENKA
  6
PHANTOM2
 10
-778.281857
 20
115.462418
 11
-778.744163
 21
115.583023
  0
LINE
  8
TENKA
  6
PHANTOM2
 10
-778.744163
 20
115.583023
 11
-779.317436
 21
115.623495
  0
LINE
  8
TENKA
  6
PHANTOM2
 10
-779.317436
 20
115.623495
 11
-779.983914
 21
115.582577
  0
LINE
  8
TENKA
  6
PHANTOM2
 10
-779.983914
 20
115.582577
 11
-780.722945
 21
115.461539
  0
LINE
  8
TENKA
  6
PHANTOM2
 10
-780.722945
 20
115.461539
 11
-781.511632
 21
115.264131
  0
LINE
  8
TENKA
  6
PHANTOM2
 10
-781.511632
 20
115.264131
 11
-782.325537
 21
114.996469
  0
ARC
  8
TENKA
  6
PHANTOM2
 10
-803.477489
 20
105.363737
 40
23.242087
 50
0.064437
 51
24.484818
  0
LINE
  8
TENKA
  6
PHANTOM2
 10
-775.235417
 20
102.989876
 11
-775.331490
 21
103.458093
  0
LINE
  8
TENKA
  6
PHANTOM2
 10
-775.331490
 20
103.458093
 11
-775.616019
 21
103.908316
  0
LINE
  8
TENKA
  6
PHANTOM2
 10
-775.616019
 20
103.908316
 11
-776.078069
 21
104.323245
  0
LINE
  8
TENKA
  6
PHANTOM2
 10
-776.078069
 20
104.323245
 11
-776.699883
 21
104.686932
  0
LINE
  8
TENKA
  6
PHANTOM2
 10
-776.699883
 20
104.686932
 11
-777.457566
 21
104.985403
  0
LINE
  8
TENKA
  6
PHANTOM2
 10
-777.457566
 20
104.985403
 11
-778.322000
 21
105.207187
  0
LINE
  8
TENKA
  6
PHANTOM2
 10
-778.322000
 20
105.207187
 11
-779.259965
 21
105.343761
  0
LINE
  8
TENKA
  6
PHANTOM2
 10
-779.259965
 20
105.343761
 11
-780.235417
 21
105.389876
  0
LINE
  8
TENKA
  6
PHANTOM2
 10
-778.735417
 20
298.989876
 11
-791.735417
 21
298.989876
  0
LINE
  8
TENKA
  6
PHANTOM2
 10
-665.735417
 20
298.989876
 11
-678.735417
 21
298.989876
  0
LINE
  8
TENKA
  6
PHANTOM2
 10
-547.735417
 20
298.989876
 11
-560.735417
 21
298.989876
  0
LINE
  8
TENKA
  6
PHANTOM2
 10
-521.235417
 20
95.945156
 11
-521.235417
 21
113.945156
  0
LINE
  8
TENKA
  6
PHANTOM2
 10
-521.235417
 20
191.616014
 11
-521.235417
 21
209.616014
  0
LINE
  8
TENKA
  6
PHANTOM2
 10
-774.235417
 20
294.989876
 11
-774.235417
 21
294.489876
  0
LINE
  8
TENKA
  6
PHANTOM2
 10
-548.235417
 20
294.989876
 11
-548.235417
 21
294.489876
  0
LINE
  8
TENKA
  6
PHANTOM2
 10
-548.235417
 20
294.489876
 11
-548.235417
 21
282.989876
  0
LINE
  8
TENKA
  6
PHANTOM2
 10
-774.235417
 20
294.489876
 11
-774.235417
 21
282.989876
  0
LINE
  8
TENKA
  6
PHANTOM2
 10
-529.165618
 20
13.141521
 11
-529.165618
 21
152.789876
  0
LINE
  8
TENKA
  6
PHANTOM2
 10
-529.165618
 20
152.789876
 11
-529.165618
 21
292.438231
  0
LINE
  8
TENKA
  6
PHANTOM2
 10
-473.941322
 20
-17.010124
 11
-470.235417
 21
-17.010124
  0
LINE
  8
TENKA
  6
PHANTOM2
 10
-835.235417
 20
-17.010124
 11
-831.529512
 21
-17.010124
  0
LINE
  8
TENKA
  6
PHANTOM2
 10
-775.235417
 20
176.225418
 11
-781.088126
 21
176.125558
  0
LINE
  8
TENKA
  6
PHANTOM2
 10
-781.088126
 20
176.125558
 11
-786.715920
 21
175.829815
  0
LINE
  8
TENKA
  6
PHANTOM2
 10
-786.715920
 20
175.829815
 11
-791.902524
 21
175.349555
  0
LINE
  8
TENKA
  6
PHANTOM2
 10
-791.902524
 20
175.349555
 11
-796.448620
 21
174.703233
  0
LINE
  8
TENKA
  6
PHANTOM2
 10
-796.448620
 20
174.703233
 11
-800.179505
 21
173.915687
  0
LINE
  8
TENKA
  6
PHANTOM2
 10
-800.179505
 20
173.915687
 11
-802.951803
 21
173.017183
  0
LINE
  8
TENKA
  6
PHANTOM2
 10
-802.951803
 20
173.017183
 11
-804.658975
 21
172.042249
  0
LINE
  8
TENKA
  6
PHANTOM2
 10
-804.658975
 20
172.042249
 11
-805.235417
 21
171.028352
  0
LINE
  8
TENKA
  6
PHANTOM2
 10
-775.235417
 20
176.225418
 11
-778.418771
 21
174.397125
  0
LINE
  8
TENKA
  6
PHANTOM2
 10
-778.418771
 20
174.397125
 11
-781.059855
 21
172.823786
  0
LINE
  8
TENKA
  6
PHANTOM2
 10
-781.059855
 20
172.823786
 11
-782.517878
 21
171.936073
  0
LINE
  8
TENKA
  6
PHANTOM2
 10
-782.517878
 20
171.936073
 11
-783.737708
 21
171.179771
  0
LINE
  8
TENKA
  6
PHANTOM2
 10
-783.737708
 20
171.179771
 11
-785.588632
 21
169.997401
  0
LINE
  8
TENKA
  6
PHANTOM2
 10
-785.588632
 20
169.997401
 11
-788.387589
 21
168.137006
  0
LINE
  8
TENKA
  6
PHANTOM2
 10
-788.387589
 20
168.137006
 11
-790.783727
 21
166.477185
  0
LINE
  8
TENKA
  6
PHANTOM2
 10
-790.783727
 20
166.477185
 11
-792.797717
 21
165.027362
  0
LINE
  8
TENKA
  6
PHANTOM2
 10
-792.797717
 20
165.027362
 11
-794.457950
 21
163.775400
  0
LINE
  8
TENKA
  6
PHANTOM2
 10
-794.457950
 20
163.775400
 11
-795.509251
 21
162.940479
  0
LINE
  8
TENKA
  6
PHANTOM2
 10
-795.509251
 20
162.940479
 11
-796.446786
 21
162.164367
  0
LINE
  8
TENKA
  6
PHANTOM2
 10
-796.446786
 20
162.164367
 11
-797.277656
 21
161.448477
  0
LINE
  8
TENKA
  6
PHANTOM2
 10
-797.277656
 20
161.448477
 11
-798.009066
 21
160.792242
  0
LINE
  8
TENKA
  6
PHANTOM2
 10
-798.009066
 20
160.792242
 11
-799.201785
 21
159.647875
  0
LINE
  8
TENKA
  6
PHANTOM2
 10
-799.201785
 20
159.647875
 11
-800.078435
 21
158.696519
  0
LINE
  8
TENKA
  6
PHANTOM2
 10
-800.078435
 20
158.696519
 11
-800.932054
 21
157.525760
  0
LINE
  8
TENKA
  6
PHANTOM2
 10
-800.932054
 20
157.525760
 11
-801.293692
 21
156.648324
  0
LINE
  8
TENKA
  6
PHANTOM2
 10
-801.293692
 20
156.648324
 11
-801.216179
 21
156.028352
  0
LINE
  8
TENKA
  6
PHANTOM2
 10
-770.594401
 20
124.201997
 11
-772.223984
 21
123.253408
  0
LINE
  8
TENKA
  6
PHANTOM2
 10
-772.223984
 20
123.253408
 11
-773.894365
 21
122.233656
  0
LINE
  8
TENKA
  6
PHANTOM2
 10
-773.894365
 20
122.233656
 11
-775.497002
 21
121.201003
  0
LINE
  8
TENKA
  6
PHANTOM2
 10
-775.497002
 20
121.201003
 11
-776.912577
 21
120.226391
  0
LINE
  8
TENKA
  6
PHANTOM2
 10
-776.912577
 20
120.226391
 11
-778.036651
 21
119.379277
  0
LINE
  8
TENKA
  6
PHANTOM2
 10
-778.036651
 20
119.379277
 11
-778.803783
 21
118.712062
  0
LINE
  8
TENKA
  6
PHANTOM2
 10
-778.803783
 20
118.712062
 11
-779.199291
 21
118.249923
  0
LINE
  8
TENKA
  6
PHANTOM2
 10
-779.199291
 20
118.249923
 11
-779.254655
 21
117.989876
  0
LINE
  8
TENKA
  6
PHANTOM2
 10
-831.529512
 20
-17.010124
 11
-831.529512
 21
-62.010124
  0
LINE
  8
TENKA
  6
PHANTOM2
 10
-473.941322
 20
-62.010124
 11
-473.941322
 21
-17.010124
  0
LINE
  8
TENKA
  6
PHANTOM2
 10
-775.871250
 20
-62.010124
 11
-775.871250
 21
-17.010124
  0
LINE
  8
TENKA
  6
PHANTOM2
 10
-667.235417
 20
-57.010124
 11
-667.235417
 21
-52.010124
  0
LINE
  8
TENKA
  6
PHANTOM2
 10
-735.235417
 20
-52.010124
 11
-735.235417
 21
-57.010124
  0
LINE
  8
TENKA
  6
PHANTOM2
 10
-544.235417
 20
2.989876
 11
-549.235417
 21
2.989876
  0
LINE
  8
TENKA
  6
PHANTOM2
 10
-549.235417
 20
-11.800070
 11
-549.235417
 21
2.989876
  0
LINE
  8
TENKA
  6
PHANTOM2
 10
-770.235417
 20
2.989876
 11
-770.235417
 21
-11.800070
  0
LINE
  8
TENKA
  6
PHANTOM2
 10
-774.577154
 20
-15.716029
 11
-774.577154
 21
-62.010124
  0
LINE
  8
TENKA
  6
PHANTOM2
 10
-735.235417
 20
-52.010124
 11
-667.235417
 21
-52.010124
  0
LINE
  8
TENKA
  6
PHANTOM2
 10
-543.599584
 20
-17.010124
 11
-543.599584
 21
-62.010124
  0
LINE
  8
TENKA
  6
PHANTOM2
 10
-544.893679
 20
-62.010124
 11
-544.893679
 21
-15.716029
  0
ARC
  8
TENKA
  6
PHANTOM2
 10
-771.472791
 20
90.678004
 40
12.873987
 50
84.484543
 51
106.993654
  0
LINE
  8
TENKA
  6
PHANTOM2
 10
-770.235417
 20
2.989876
 11
-775.235417
 21
2.989876
  0
LINE
  8
TENKA
  6
PHANTOM2
 10
-549.235417
 20
2.989876
 11
-770.235417
 21
2.989876
  0
LINE
  8
TENKA
  6
PHANTOM2
 10
-549.235417
 20
2.989876
 11
-549.235417
 21
282.989876
  0
LINE
  8
TENKA
  6
PHANTOM2
 10
-775.235417
 20
282.989876
 11
-775.235417
 21
176.225418
  0
LINE
  8
TENKA
  6
PHANTOM2
 10
-775.235417
 20
176.225418
 11
-774.842128
 21
175.382130
  0
LINE
  8
TENKA
  6
PHANTOM2
 10
-774.842128
 20
175.382130
 11
-774.541200
 21
174.422083
  0
LINE
  8
TENKA
  6
PHANTOM2
 10
-774.541200
 20
174.422083
 11
-774.332634
 21
173.345219
  0
LINE
  8
TENKA
  6
PHANTOM2
 10
-774.332634
 20
173.345219
 11
-774.184843
 21
169.440428
  0
LINE
  8
TENKA
  6
PHANTOM2
 10
-774.184843
 20
169.440428
 11
-774.302336
 21
165.386302
  0
LINE
  8
TENKA
  6
PHANTOM2
 10
-774.302336
 20
165.386302
 11
-773.979912
 21
161.612449
  0
LINE
  8
TENKA
  6
PHANTOM2
 10
-773.979912
 20
161.612449
 11
-773.534661
 21
157.918140
  0
LINE
  8
TENKA
  6
PHANTOM2
 10
-773.534661
 20
157.918140
 11
-773.079593
 21
154.185237
  0
LINE
  8
TENKA
  6
PHANTOM2
 10
-773.079593
 20
154.185237
 11
-772.614708
 21
150.413730
  0
LINE
  8
TENKA
  6
PHANTOM2
 10
-772.614708
 20
150.413730
 11
-771.721832
 21
143.282895
  0
LINE
  8
TENKA
  6
PHANTOM2
 10
-771.721832
 20
143.282895
 11
-771.603315
 21
142.347188
  0
LINE
  8
TENKA
  6
PHANTOM2
 10
-771.603315
 20
142.347188
 11
-771.484429
 21
141.411043
  0
LINE
  8
TENKA
  6
PHANTOM2
 10
-771.484429
 20
141.411043
 11
-771.365173
 21
140.474459
  0
LINE
  8
TENKA
  6
PHANTOM2
 10
-771.365173
 20
140.474459
 11
-771.245549
 21
139.537438
  0
LINE
  8
TENKA
  6
PHANTOM2
 10
-771.245549
 20
139.537438
 11
-771.125556
 21
138.599979
  0
LINE
  8
TENKA
  6
PHANTOM2
 10
-771.125556
 20
138.599979
 11
-771.005193
 21
137.662084
  0
LINE
  8
TENKA
  6
PHANTOM2
 10
-771.005193
 20
137.662084
 11
-770.842625
 21
136.383935
  0
LINE
  8
TENKA
  6
PHANTOM2
 10
-770.842625
 20
136.383935
 11
-770.724334
 21
135.424438
  0
LINE
  8
TENKA
  6
PHANTOM2
 10
-770.724334
 20
135.424438
 11
-770.650322
 21
134.783719
  0
LINE
  8
TENKA
  6
PHANTOM2
 10
-770.650322
 20
134.783719
 11
-770.620588
 21
134.461861
  0
LINE
  8
TENKA
  6
PHANTOM2
 10
-770.620588
 20
134.461861
 11
-770.623700
 21
133.533765
  0
LINE
  8
TENKA
  6
PHANTOM2
 10
-770.623700
 20
133.533765
 11
-770.707567
 21
132.343065
  0
LINE
  8
TENKA
  6
PHANTOM2
 10
-770.707567
 20
132.343065
 11
-770.872187
 21
130.889640
  0
LINE
  8
TENKA
  6
PHANTOM2
 10
-770.872187
 20
130.889640
 11
-771.020145
 21
129.687304
  0
LINE
  8
TENKA
  6
PHANTOM2
 10
-771.020145
 20
129.687304
 11
-771.127504
 21
128.681940
  0
LINE
  8
TENKA
  6
PHANTOM2
 10
-771.127504
 20
128.681940
 11
-771.194265
 21
127.873628
  0
LINE
  8
TENKA
  6
PHANTOM2
 10
-771.194265
 20
127.873628
 11
-771.220427
 21
127.262427
  0
LINE
  8
TENKA
  6
PHANTOM2
 10
-771.220427
 20
127.262427
 11
-771.074933
 21
125.534277
  0
LINE
  8
TENKA
  6
PHANTOM2
 10
-771.074933
 20
125.534277
 11
-770.594401
 21
124.201997
  0
LINE
  8
TENKA
  6
PHANTOM2
 10
-770.594401
 20
124.201997
 11
-770.172782
 21
122.961660
  0
LINE
  8
TENKA
  6
PHANTOM2
 10
-770.172782
 20
122.961660
 11
-770.125915
 21
121.372621
  0
LINE
  8
TENKA
  6
PHANTOM2
 10
-770.125915
 20
121.372621
 11
-770.308476
 21
120.088941
  0
LINE
  8
TENKA
  6
PHANTOM2
 10
-770.308476
 20
120.088941
 11
-770.697797
 21
118.225207
  0
LINE
  8
TENKA
  6
PHANTOM2
 10
-770.697797
 20
118.225207
 11
-771.018075
 21
116.558332
  0
LINE
  8
TENKA
  6
PHANTOM2
 10
-771.018075
 20
116.558332
 11
-771.087713
 21
115.920514
  0
LINE
  8
TENKA
  6
PHANTOM2
 10
-771.087713
 20
115.920514
 11
-771.099907
 21
115.650524
  0
LINE
  8
TENKA
  6
PHANTOM2
 10
-771.099907
 20
115.650524
 11
-771.100348
 21
115.527760
  0
LINE
  8
TENKA
  6
PHANTOM2
 10
-771.100348
 20
115.527760
 11
-770.937110
 21
114.331351
  0
LINE
  8
TENKA
  6
PHANTOM2
 10
-770.937110
 20
114.331351
 11
-770.736562
 21
113.006598
  0
LINE
  8
TENKA
  6
PHANTOM2
 10
-770.736562
 20
113.006598
 11
-770.360712
 21
108.774975
  0
LINE
  8
TENKA
  6
PHANTOM2
 10
-770.360712
 20
108.774975
 11
-770.235417
 21
103.492389
  0
LINE
  8
TENKA
  6
PHANTOM2
 10
-770.235417
 20
103.492389
 11
-770.235417
 21
2.989876
  0
ARC
  8
TENKA
  6
PHANTOM2
 10
-539.251652
 20
-7.074590
 40
4.992449
 50
195.868648
 51
268.010950
  0
LINE
  8
TENKA
  6
PHANTOM2
 10
-549.235417
 20
-11.800070
 11
-548.638669
 21
-12.215074
  0
LINE
  8
TENKA
  6
PHANTOM2
 10
-548.638669
 20
-12.215074
 11
-548.088055
 21
-12.395690
  0
LINE
  8
TENKA
  6
PHANTOM2
 10
-548.088055
 20
-12.395690
 11
-547.780082
 21
-12.393680
  0
LINE
  8
TENKA
  6
PHANTOM2
 10
-547.780082
 20
-12.393680
 11
-547.261801
 21
-12.210374
  0
LINE
  8
TENKA
  6
PHANTOM2
 10
-547.261801
 20
-12.210374
 11
-546.985116
 21
-12.021510
  0
LINE
  8
TENKA
  6
PHANTOM2
 10
-546.985116
 20
-12.021510
 11
-546.106236
 21
-11.050119
  0
LINE
  8
TENKA
  6
PHANTOM2
 10
-546.106236
 20
-11.050119
 11
-545.040213
 21
-9.246747
  0
LINE
  8
TENKA
  6
PHANTOM2
 10
-545.040213
 20
-9.246747
 11
-544.456375
 21
-7.930178
  0
LINE
  8
TENKA
  6
PHANTOM2
 10
-544.456375
 20
-7.930178
 11
-544.254966
 21
-7.280034
  0
LINE
  8
TENKA
  6
PHANTOM2
 10
-544.254966
 20
-7.280034
 11
-544.235417
 21
-7.117938
  0
ARC
  8
TENKA
  6
PHANTOM2
 10
-539.227499
 20
-12.398045
 40
0.388001
 50
91.169309
 51
120.587124
  0
ARC
  8
TENKA
  6
PHANTOM2
 10
-551.631990
 20
10.696428
 40
25.827325
 50
281.311299
 51
298.205877
  0
LINE
  8
TENKA
  6
PHANTOM2
 10
-473.941322
 20
-17.010124
 11
-543.599584
 21
-17.010124
  0
LINE
  8
TENKA
  6
PHANTOM2
 10
-475.235417
 20
-12.010124
 11
-474.982951
 21
-12.106197
  0
LINE
  8
TENKA
  6
PHANTOM2
 10
-474.982951
 20
-12.106197
 11
-474.740188
 21
-12.390726
  0
LINE
  8
TENKA
  6
PHANTOM2
 10
-474.740188
 20
-12.390726
 11
-474.516456
 21
-12.852776
  0
LINE
  8
TENKA
  6
PHANTOM2
 10
-474.516456
 20
-12.852776
 11
-474.320353
 21
-13.474590
  0
LINE
  8
TENKA
  6
PHANTOM2
 10
-474.320353
 20
-13.474590
 11
-474.159416
 21
-14.232273
  0
LINE
  8
TENKA
  6
PHANTOM2
 10
-474.159416
 20
-14.232273
 11
-474.039829
 21
-15.096707
  0
LINE
  8
TENKA
  6
PHANTOM2
 10
-474.039829
 20
-15.096707
 11
-473.966187
 21
-16.034672
  0
LINE
  8
TENKA
  6
PHANTOM2
 10
-473.966187
 20
-16.034672
 11
-473.941322
 21
-17.010124
  0
ARC
  8
TENKA
  6
PHANTOM2
 10
-780.238588
 20
-12.381356
 40
0.371246
 50
58.732960
 51
89.510607
  0
LINE
  8
TENKA
  6
PHANTOM2
 10
-830.235417
 20
-12.010124
 11
-830.487882
 21
-12.106197
  0
LINE
  8
TENKA
  6
PHANTOM2
 10
-830.487882
 20
-12.106197
 11
-830.730646
 21
-12.390726
  0
LINE
  8
TENKA
  6
PHANTOM2
 10
-830.730646
 20
-12.390726
 11
-830.954378
 21
-12.852776
  0
LINE
  8
TENKA
  6
PHANTOM2
 10
-830.954378
 20
-12.852776
 11
-831.150480
 21
-13.474590
  0
LINE
  8
TENKA
  6
PHANTOM2
 10
-831.150480
 20
-13.474590
 11
-831.311418
 21
-14.232273
  0
LINE
  8
TENKA
  6
PHANTOM2
 10
-831.311418
 20
-14.232273
 11
-831.431005
 21
-15.096707
  0
LINE
  8
TENKA
  6
PHANTOM2
 10
-831.431005
 20
-15.096707
 11
-831.504646
 21
-16.034672
  0
LINE
  8
TENKA
  6
PHANTOM2
 10
-831.504646
 20
-16.034672
 11
-831.529512
 21
-17.010124
  0
LINE
  8
TENKA
  6
PHANTOM2
 10
-775.871250
 20
-17.010124
 11
-831.529512
 21
-17.010124
  0
LINE
  8
TENKA
  6
PHANTOM2
 10
-775.235417
 20
-7.117938
 11
-775.125733
 21
-7.613049
  0
LINE
  8
TENKA
  6
PHANTOM2
 10
-775.125733
 20
-7.613049
 11
-774.602161
 21
-8.893773
  0
LINE
  8
TENKA
  6
PHANTOM2
 10
-774.602161
 20
-8.893773
 11
-773.367799
 21
-11.045663
  0
LINE
  8
TENKA
  6
PHANTOM2
 10
-773.367799
 20
-11.045663
 11
-772.337260
 21
-12.130471
  0
LINE
  8
TENKA
  6
PHANTOM2
 10
-772.337260
 20
-12.130471
 11
-771.829251
 21
-12.366915
  0
LINE
  8
TENKA
  6
PHANTOM2
 10
-771.829251
 20
-12.366915
 11
-771.568808
 21
-12.403865
  0
LINE
  8
TENKA
  6
PHANTOM2
 10
-771.568808
 20
-12.403865
 11
-771.050914
 21
-12.313245
  0
LINE
  8
TENKA
  6
PHANTOM2
 10
-771.050914
 20
-12.313245
 11
-770.762641
 21
-12.177212
  0
LINE
  8
TENKA
  6
PHANTOM2
 10
-770.762641
 20
-12.177212
 11
-770.235417
 21
-11.800070
  0
ARC
  8
TENKA
  6
PHANTOM2
 10
-780.213154
 20
-7.082475
 40
4.984363
 50
271.922953
 51
344.739920
  0
ARC
  8
TENKA
  6
PHANTOM2
 10
-767.695519
 20
11.095432
 40
26.246765
 50
241.930079
 51
258.552746
  0
CIRCLE
  8
TENKA
  6
PHANTOM2
 10
-572.235417
 20
-37.010124
 40
9.500000
  0
LINE
  8
OBRYS
 10
-475.235417
 20
218.789876
 11
-475.235417
 21
86.789876
  0
LINE
  8
OBRYS
 10
-465.235417
 20
275.334687
 11
-465.235417
 21
30.245065
  0
LINE
  8
OBRYS
 10
-450.235417
 20
277.789876
 11
-450.235417
 21
27.789876
  0
LINE
  8
OBRYS
 10
-800.735417
 20
299.989876
 11
-790.735417
 21
299.989876
  0
LINE
  8
OBRYS
 10
-548.735417
 20
299.989876
 11
-543.735417
 21
299.989876
  0
LINE
  8
OBRYS
 10
-962.735417
 20
196.989876
 11
-953.735417
 21
196.989876
  0
LINE
  8
OBRYS
 10
-953.735417
 20
196.989876
 11
-861.735417
 21
196.989876
  0
LINE
  8
OBRYS
 10
-861.735417
 20
196.989876
 11
-852.735417
 21
196.989876
  0
LINE
  8
OBRYS
 10
-625.044180
 20
304.989876
 11
-619.516002
 21
304.989876
  0
LINE
  8
OBRYS
 10
-644.954832
 20
304.989876
 11
-639.426654
 21
304.989876
  0
LINE
  8
OBRYS
 10
-840.235417
 20
42.989876
 11
-840.235417
 21
43.743634
  0
ARC
  8
OBRYS
 10
-790.981573
 20
40.340256
 40
2.751203
 50
3.471215
 51
95.294014
  0
LINE
  8
OBRYS
 10
-840.235417
 20
43.743634
 11
-840.235417
 21
43.809788
  0
LINE
  8
OBRYS
 10
-810.235417
 20
282.989876
 11
-840.235417
 21
282.989876
  0
LINE
  8
OBRYS
 10
-840.235417
 20
278.425655
 11
-840.235417
 21
282.989876
  0
LINE
  8
OBRYS
 10
-840.235417
 20
254.237099
 11
-840.235417
 21
278.425655
  0
LINE
  8
OBRYS
 10
-810.235417
 20
282.989876
 11
-805.235417
 21
282.989876
  0
LINE
  8
OBRYS
 10
-840.235417
 20
249.847457
 11
-840.235417
 21
254.237099
  0
LINE
  8
OBRYS
 10
-967.735417
 20
191.989876
 11
-967.735417
 21
133.989876
  0
LINE
  8
OBRYS
 10
-966.735417
 20
192.989876
 11
-966.735417
 21
132.989876
  0
ARC
  8
OBRYS
 10
-862.013031
 20
223.412733
 40
31.805892
 50
270.500106
 51
286.899075
  0
LINE
  8
OBRYS
 10
-861.735417
 20
191.608052
 11
-953.735417
 21
191.608052
  0
LINE
  8
OBRYS
 10
-953.735417
 20
191.608052
 11
-955.186470
 21
191.644816
  0
LINE
  8
OBRYS
 10
-955.186470
 20
191.644816
 11
-956.637524
 21
191.754824
  0
LINE
  8
OBRYS
 10
-956.637524
 20
191.754824
 11
-957.964992
 21
191.918915
  0
LINE
  8
OBRYS
 10
-957.964992
 20
191.918915
 11
-959.210881
 21
192.127150
  0
LINE
  8
OBRYS
 10
-959.210881
 20
192.127150
 11
-960.307827
 21
192.353060
  0
LINE
  8
OBRYS
 10
-960.307827
 20
192.353060
 11
-961.250297
 21
192.578276
  0
LINE
  8
OBRYS
 10
-961.250297
 20
192.578276
 11
-961.974243
 21
192.770378
  0
LINE
  8
OBRYS
 10
-961.974243
 20
192.770378
 11
-962.477590
 21
192.913539
  0
LINE
  8
OBRYS
 10
-962.477590
 20
192.913539
 11
-962.709956
 21
192.982248
  0
LINE
  8
OBRYS
 10
-962.709956
 20
192.982248
 11
-962.703354
 21
192.980274
  0
LINE
  8
OBRYS
 10
-847.735417
 20
202.261936
 11
-847.735417
 21
123.717817
  0
LINE
  8
OBRYS
 10
-845.735417
 20
202.989876
 11
-845.735417
 21
122.989876
  0
LINE
  8
OBRYS
 10
-543.735417
 20
294.989876
 11
-539.735417
 21
294.989876
  0
LINE
  8
OBRYS
 10
-539.735417
 20
294.989876
 11
-539.235417
 21
294.489876
  0
LINE
  8
OBRYS
 10
-539.235417
 20
294.489876
 11
-539.235417
 21
282.989876
  0
LINE
  8
OBRYS
 10
-539.235417
 20
294.489876
 11
-543.235417
 21
294.489876
  0
LINE
  8
OBRYS
 10
-541.901491
 20
282.989876
 11
-539.235417
 21
282.989876
  0
LINE
  8
OBRYS
 10
-520.235417
 20
45.304935
 11
-520.235417
 21
29.304935
  0
LINE
  8
OBRYS
 10
-520.235417
 20
276.274818
 11
-520.235417
 21
260.274818
  0
ARC
  8
OBRYS
 10
-790.758621
 20
41.187989
 40
2.893958
 50
29.321351
 51
98.433631
  0
LINE
  8
OBRYS
 10
-840.235417
 20
89.705909
 11
-840.235417
 21
43.809788
  0
LINE
  8
OBRYS
 10
-840.235417
 20
43.809788
 11
-830.237141
 21
43.847102
  0
LINE
  8
OBRYS
 10
-830.237141
 20
43.847102
 11
-791.235417
 21
44.050774
  0
LINE
  8
OBRYS
 10
-791.235417
 20
44.050774
 11
-791.183060
 21
44.050653
  0
LINE
  8
OBRYS
 10
-840.235417
 20
236.273844
 11
-840.235417
 21
249.847457
  0
LINE
  8
OBRYS
 10
-475.235417
 20
86.789876
 11
-475.235417
 21
152.789876
  0
LINE
  8
OBRYS
 10
-475.235417
 20
152.789876
 11
-475.235417
 21
218.789876
  0
LINE
  8
OBRYS
 10
-777.985417
 20
304.489876
 11
-758.485417
 21
304.489876
  0
LINE
  8
OBRYS
 10
-778.735417
 20
296.489876
 11
-755.735417
 21
296.489876
  0
LINE
  8
OBRYS
 10
-843.735417
 20
82.989876
 11
-843.735417
 21
162.989876
  0
LINE
  8
OBRYS
 10
-843.735417
 20
162.989876
 11
-843.735417
 21
242.989876
  0
LINE
  8
OBRYS
 10
-840.235417
 20
186.002483
 11
-840.235417
 21
191.376722
  0
LINE
  8
OBRYS
 10
-840.235417
 20
134.603031
 11
-840.235417
 21
139.977269
  0
LINE
  8
OBRYS
 10
-840.235417
 20
139.977269
 11
-840.235417
 21
186.002483
  0
LINE
  8
OBRYS
 10
-840.235417
 20
234.242712
 11
-840.235417
 21
236.273844
  0
LINE
  8
OBRYS
 10
-840.235417
 20
89.705909
 11
-840.235417
 21
91.737041
  0
LINE
  8
OBRYS
 10
-788.235417
 20
81.141569
 11
-788.235417
 21
86.871449
  0
LINE
  8
OBRYS
 10
-840.235417
 20
191.376722
 11
-840.235417
 21
204.887797
  0
LINE
  8
OBRYS
 10
-840.235417
 20
121.091955
 11
-840.235417
 21
134.603031
  0
LINE
  8
OBRYS
 10
-788.235417
 20
4.848761
 11
-788.235417
 21
81.141569
  0
LINE
  8
OBRYS
 10
-840.235417
 20
210.983283
 11
-840.235417
 21
234.242712
  0
LINE
  8
OBRYS
 10
-840.235417
 20
204.887797
 11
-840.235417
 21
210.983283
  0
LINE
  8
OBRYS
 10
-840.235417
 20
114.996469
 11
-840.235417
 21
121.091955
  0
LINE
  8
OBRYS
 10
-840.235417
 20
91.737041
 11
-840.235417
 21
114.996469
  0
LINE
  8
OBRYS
 10
-790.735417
 20
299.989876
 11
-779.735417
 21
299.989876
  0
LINE
  8
OBRYS
 10
-677.735417
 20
299.989876
 11
-666.735417
 21
299.989876
  0
LINE
  8
OBRYS
 10
-559.735417
 20
299.989876
 11
-548.735417
 21
299.989876
  0
LINE
  8
OBRYS
 10
-520.235417
 20
112.945156
 11
-520.235417
 21
96.945156
  0
LINE
  8
OBRYS
 10
-520.235417
 20
208.616014
 11
-520.235417
 21
192.616014
  0
LINE
  8
OBRYS
 10
-803.735417
 20
294.989876
 11
-804.235417
 21
294.489876
  0
LINE
  8
OBRYS
 10
-803.735417
 20
294.989876
 11
-774.235417
 21
294.989876
  0
LINE
  8
OBRYS
 10
-543.735417
 20
294.989876
 11
-543.235417
 21
294.489876
  0
LINE
  8
OBRYS
 10
-548.235417
 20
294.989876
 11
-543.735417
 21
294.989876
  0
LINE
  8
OBRYS
 10
-548.235417
 20
282.989876
 11
-543.235417
 21
282.989876
  0
LINE
  8
OBRYS
 10
-543.235417
 20
294.489876
 11
-543.235417
 21
282.989876
  0
LINE
  8
OBRYS
 10
-543.235417
 20
294.489876
 11
-548.235417
 21
294.489876
  0
LINE
  8
OBRYS
 10
-774.235417
 20
294.989876
 11
-548.235417
 21
294.989876
  0
LINE
  8
OBRYS
 10
-549.235417
 20
282.989876
 11
-548.235417
 21
282.989876
  0
LINE
  8
OBRYS
 10
-548.235417
 20
294.489876
 11
-774.235417
 21
294.489876
  0
LINE
  8
OBRYS
 10
-774.235417
 20
294.489876
 11
-804.235417
 21
294.489876
  0
LINE
  8
OBRYS
 10
-804.235417
 20
294.489876
 11
-804.235417
 21
282.989876
  0
LINE
  8
OBRYS
 10
-527.235417
 20
290.439449
 11
-527.235417
 21
15.140303
  0
LINE
  8
OBRYS
 10
-539.235417
 20
282.989876
 11
-539.235417
 21
12.789876
  0
LINE
  8
OBRYS
 10
-543.235417
 20
282.989876
 11
-541.901491
 21
282.989876
  0
ARC
  8
OBRYS
 10
-475.235417
 20
-17.010124
 40
5.000000
 50
0.000000
 51
90.000000
  0
LINE
  8
OBRYS
 10
-470.235417
 20
-62.010124
 11
-473.941322
 21
-62.010124
  0
LINE
  8
OBRYS
 10
-470.235417
 20
-17.010124
 11
-470.235417
 21
-62.010124
  0
ARC
  8
OBRYS
 10
-830.235417
 20
-17.010124
 40
5.000000
 50
90.000000
 51
180.000000
  0
LINE
  8
OBRYS
 10
-831.529512
 20
-62.010124
 11
-835.235417
 21
-62.010124
  0
LINE
  8
OBRYS
 10
-835.235417
 20
-62.010124
 11
-835.235417
 21
-17.010124
  0
LINE
  8
OBRYS
 10
-805.235417
 20
282.989876
 11
-775.235417
 21
282.989876
  0
LINE
  8
OBRYS
 10
-805.235417
 20
171.028352
 11
-805.235417
 21
282.989876
  0
ARC
  8
OBRYS
 10
-775.235417
 20
171.028352
 40
30.000000
 50
180.000000
 51
210.000000
  0
LINE
  8
OBRYS
 10
-779.254655
 20
117.989876
 11
-801.216179
 21
156.028352
  0
ARC
  8
OBRYS
 10
-805.235417
 20
102.989876
 40
30.000000
 50
0.000000
 51
30.000000
  0
LINE
  8
OBRYS
 10
-775.235417
 20
-7.010124
 11
-775.235417
 21
-7.117938
  0
ARC
  8
OBRYS
 10
-780.235417
 20
-7.010124
 40
5.000000
 50
270.000000
 51
360.000000
  0
ARC
  8
OBRYS
 10
-539.235417
 20
-7.010124
 40
5.000000
 50
180.000000
 51
270.000000
  0
LINE
  8
OBRYS
 10
-544.235417
 20
-7.117938
 11
-544.235417
 21
-7.010124
  0
CIRCLE
  8
OBRYS
 10
-572.235417
 20
-37.010124
 40
12.500000
  0
LINE
  8
OBRYS
 10
-775.871250
 20
-62.010124
 11
-831.529512
 21
-62.010124
  0
LINE
  8
OBRYS
 10
-473.941322
 20
-62.010124
 11
-543.599584
 21
-62.010124
  0
LINE
  8
OBRYS
 10
-774.577154
 20
-62.010124
 11
-775.871250
 21
-62.010124
  0
LINE
  8
OBRYS
 10
-775.235417
 20
-7.117938
 11
-775.235417
 21
2.989876
  0
ARC
  8
OBRYS
 10
-735.235417
 20
-62.010124
 40
5.000000
 50
90.000000
 51
180.000000
  0
ARC
  8
OBRYS
 10
-667.235417
 20
-62.010124
 40
5.000000
 50
0.000000
 51
90.000000
  0
LINE
  8
OBRYS
 10
-667.235417
 20
-57.010124
 11
-735.235417
 21
-57.010124
  0
LINE
  8
OBRYS
 10
-544.235417
 20
2.989876
 11
-544.235417
 21
-7.117938
  0
LINE
  8
OBRYS
 10
-544.235417
 20
282.989876
 11
-544.235417
 21
2.989876
  0
LINE
  8
OBRYS
 10
-544.893679
 20
-62.010124
 11
-662.235417
 21
-62.010124
  0
CIRCLE
  8
OBRYS
 10
-572.235417
 20
-37.010124
 40
15.000000
  0
LINE
  8
OBRYS
 10
-740.235417
 20
-62.010124
 11
-774.577154
 21
-62.010124
  0
LINE
  8
OBRYS
 10
-740.235417
 20
-62.010124
 11
-740.235417
 21
-60.670378
  0
LINE
  8
OBRYS
 10
-740.235417
 20
-60.670378
 11
-739.788629
 21
-58.170378
  0
LINE
  8
OBRYS
 10
-739.788629
 20
-58.170378
 11
-739.059759
 21
-56.589716
  0
LINE
  8
OBRYS
 10
-739.059759
 20
-56.589716
 11
-738.093389
 21
-55.137161
  0
LINE
  8
OBRYS
 10
-738.093389
 20
-55.137161
 11
-735.245417
 21
-52.020124
  0
LINE
  8
OBRYS
 10
-735.245417
 20
-52.020124
 11
-735.235417
 21
-52.010124
  0
LINE
  8
OBRYS
 10
-667.235417
 20
-52.010124
 11
-667.225417
 21
-52.020124
  0
LINE
  8
OBRYS
 10
-667.225417
 20
-52.020124
 11
-664.377445
 21
-55.137161
  0
LINE
  8
OBRYS
 10
-664.377445
 20
-55.137161
 11
-663.411075
 21
-56.589716
  0
LINE
  8
OBRYS
 10
-663.411075
 20
-56.589716
 11
-662.682205
 21
-58.170378
  0
LINE
  8
OBRYS
 10
-662.682205
 20
-58.170378
 11
-662.235417
 21
-60.670378
  0
LINE
  8
OBRYS
 10
-662.235417
 20
-62.010124
 11
-662.235417
 21
-60.670378
  0
LINE
  8
OBRYS
 10
-543.599584
 20
-62.010124
 11
-544.893679
 21
-62.010124
  0
LINE
  8
OBRYS
 10
-775.235417
 20
2.989876
 11
-775.235417
 21
102.989876
  0
LINE
  8
OBRYS
 10
-549.235417
 20
282.989876
 11
-774.235417
 21
282.989876
  0
LINE
  8
OBRYS
 10
-774.235417
 20
282.989876
 11
-775.235417
 21
282.989876
  0
ARC
  8
OBRYS
 10
-543.529355
 20
-9.090359
 40
6.316777
 50
205.402241
 51
241.264726
  0
LINE
  8
OBRYS
 10
-544.235417
 20
-7.117938
 11
-544.143911
 21
-8.060550
  0
LINE
  8
OBRYS
 10
-544.143911
 20
-8.060550
 11
-544.053845
 21
-8.439690
  0
ARC
  8
OBRYS
 10
-549.388902
 20
-20.803627
 40
6.789012
 50
48.537316
 51
65.432144
  0
ARC
  8
OBRYS
 10
-581.719021
 20
-53.835466
 40
53.001862
 50
44.010754
 51
45.989246
  0
LINE
  8
OBRYS
 10
-539.235417
 20
-12.010124
 11
-475.235417
 21
-12.010124
  0
ARC
  8
OBRYS
 10
-770.531791
 20
-20.111308
 40
5.973562
 50
113.404438
 51
132.626102
  0
LINE
  8
OBRYS
 10
-830.235417
 20
-12.010124
 11
-780.235417
 21
-12.010124
  0
ARC
  8
OBRYS
 10
-737.751812
 20
-53.835466
 40
53.001862
 50
134.010754
 51
135.989246
  0
ARC
  8
OBRYS
 10
-775.931214
 20
-9.100043
 40
6.303353
 50
298.695784
 51
334.637248
  0
LINE
  8
OBRYS
 10
-775.404535
 20
-8.394364
 11
-775.326923
 21
-8.060550
  0
LINE
  8
OBRYS
 10
-775.326923
 20
-8.060550
 11
-775.235417
 21
-7.117938
  0
LINE
  8
OBRYS
 10
-568.235417
 20
-34.700723
 11
-572.235417
 21
-32.391322
  0
LINE
  8
OBRYS
 10
-568.235417
 20
-39.319525
 11
-568.235417
 21
-34.700723
  0
LINE
  8
OBRYS
 10
-572.235417
 20
-41.628926
 11
-568.235417
 21
-39.319525
  0
LINE
  8
OBRYS
 10
-576.235417
 20
-39.319525
 11
-572.235417
 21
-41.628926
  0
LINE
  8
OBRYS
 10
-576.235417
 20
-34.700723
 11
-576.235417
 21
-39.319525
  0
LINE
  8
OBRYS
 10
-572.235417
 20
-32.391322
 11
-576.235417
 21
-34.700723
  0
CIRCLE
  8
OBRYS
 10
-572.235417
 20
-37.010124
 40
10.500000
  0
LINE
  8
OBRYS
 10
-475.235417
 20
86.789876
 11
-468.130718
 21
86.541775
  0
LINE
  8
OBRYS
 10
-468.130718
 20
219.037978
 11
-475.235417
 21
218.789876
  0
ARC
  8
OBRYS
 10
-468.235417
 20
83.543602
 40
3.000000
 50
0.000000
 51
88.000000
  0
ARC
  8
OBRYS
 10
-468.235417
 20
222.036150
 40
3.000000
 50
272.000000
 51
360.000000
  0
ARC
  8
OBRYS
 10
-463.235417
 20
30.245065
 40
2.000000
 50
180.000000
 51
268.000000
  0
ARC
  8
OBRYS
 10
-463.235417
 20
275.334687
 40
2.000000
 50
92.000000
 51
180.000000
  0
LINE
  8
OBRYS
 10
-463.305216
 20
28.246284
 11
-450.235417
 21
27.789876
  0
LINE
  8
OBRYS
 10
-450.235417
 20
277.789876
 11
-463.305216
 21
277.333469
  0
LINE
  8
OBRYS
 10
-625.049837
 20
305.027143
 11
-625.256326
 21
305.032784
  0
ARC
  8
OBRYS
 10
-800.735417
 20
298.989876
 40
1.000000
 50
90.000000
 51
180.000000
  0
LINE
  8
OBRYS
 10
-801.735417
 20
298.989876
 11
-801.735417
 21
294.989876
  0
ARC
  8
OBRYS
 10
-543.735417
 20
298.989876
 40
1.000000
 50
0.000000
 51
90.000000
  0
LINE
  8
OBRYS
 10
-542.735417
 20
294.989876
 11
-542.735417
 21
298.989876
  0
LINE
  8
OBRYS
 10
-962.735417
 20
196.989876
 11
-962.735417
 21
192.980275
  0
LINE
  8
OBRYS
 10
-852.735417
 20
192.980275
 11
-852.735417
 21
196.989876
  0
ARC
  8
OBRYS
 10
-619.516002
 20
302.989876
 40
2.000000
 50
2.000000
 51
90.000000
  0
ARC
  8
OBRYS
 10
-644.954832
 20
302.989876
 40
2.000000
 50
90.000000
 51
178.000000
  0
LINE
  8
OBRYS
 10
-840.235417
 20
42.989876
 11
-790.428347
 21
42.989876
  0
LINE
  8
OBRYS
 10
-625.050564
 20
305.024761
 11
-625.337246
 21
305.015915
  0
LINE
  8
OBRYS
 10
-625.337246
 20
305.015915
 11
-625.868533
 21
305.218693
  0
LINE
  8
OBRYS
 10
-625.868533
 20
305.218693
 11
-626.160435
 21
305.465035
  0
LINE
  8
OBRYS
 10
-626.160435
 20
305.465035
 11
-626.269906
 21
305.627835
  0
LINE
  8
OBRYS
 10
-626.269906
 20
305.627835
 11
-626.269602
 21
305.621678
  0
ARC
  8
OBRYS
 10
-639.312225
 20
306.292520
 40
1.283832
 50
264.642948
 51
316.626471
  0
LINE
  8
OBRYS
 10
-646.953613
 20
303.059675
 11
-647.235417
 21
294.989876
  0
LINE
  8
OBRYS
 10
-617.235417
 20
294.989876
 11
-617.517220
 21
303.059675
  0
LINE
  8
OBRYS
 10
-638.235417
 20
341.989876
 11
-638.235417
 21
305.216463
  0
LINE
  8
OBRYS
 10
-626.235417
 20
305.216715
 11
-626.235417
 21
341.989876
  0
ARC
  8
OBRYS
 10
-632.235417
 20
341.989876
 40
6.000000
 50
0.000000
 51
180.000000
  0
LINE
  8
OBRYS
 10
-967.735417
 20
133.989876
 11
-966.735417
 21
132.989876
  0
LINE
  8
OBRYS
 10
-966.735417
 20
192.989876
 11
-967.735417
 21
191.989876
  0
LINE
  8
OBRYS
 10
-966.735417
 20
132.989876
 11
-847.735417
 21
132.989876
  0
LINE
  8
OBRYS
 10
-847.735417
 20
192.989876
 11
-852.767479
 21
192.989876
  0
LINE
  8
OBRYS
 10
-962.703354
 20
192.989876
 11
-966.735417
 21
192.989876
  0
LINE
  8
OBRYS
 10
-847.735417
 20
123.717817
 11
-845.735417
 21
122.989876
  0
LINE
  8
OBRYS
 10
-845.735417
 20
202.989876
 11
-847.735417
 21
202.261936
  0
LINE
  8
OBRYS
 10
-845.735417
 20
122.989876
 11
-843.735417
 21
122.989876
  0
LINE
  8
OBRYS
 10
-843.735417
 20
202.989876
 11
-845.735417
 21
202.989876
  0
LINE
  8
OBRYS
 10
-521.235417
 20
46.304935
 11
-527.235417
 21
46.304935
  0
LINE
  8
OBRYS
 10
-527.235417
 20
28.304935
 11
-521.235417
 21
28.304935
  0
ARC
  8
OBRYS
 10
-521.235417
 20
29.304935
 40
1.000000
 50
270.000000
 51
360.000000
  0
ARC
  8
OBRYS
 10
-521.235417
 20
45.304935
 40
1.000000
 50
0.000000
 51
90.000000
  0
LINE
  8
OBRYS
 10
-521.235417
 20
277.274818
 11
-527.235417
 21
277.274818
  0
LINE
  8
OBRYS
 10
-527.235417
 20
259.274818
 11
-521.235417
 21
259.274818
  0
ARC
  8
OBRYS
 10
-521.235417
 20
260.274818
 40
1.000000
 50
270.000000
 51
360.000000
  0
ARC
  8
OBRYS
 10
-521.235417
 20
276.274818
 40
1.000000
 50
0.000000
 51
90.000000
  0
LINE
  8
OBRYS
 10
-475.235417
 20
218.789876
 11
-479.143506
 21
218.789876
  0
LINE
  8
OBRYS
 10
-479.143506
 20
86.789876
 11
-475.235417
 21
86.789876
  0
ARC
  8
OBRYS
 10
-479.143506
 20
221.789876
 40
3.000000
 50
230.000000
 51
270.000000
  0
ARC
  8
OBRYS
 10
-479.143506
 20
83.789876
 40
3.000000
 50
90.000000
 51
130.000000
  0
LINE
  8
OBRYS
 10
-778.735417
 20
303.739876
 11
-778.735417
 21
298.989876
  0
LINE
  8
OBRYS
 10
-757.735417
 20
296.489876
 11
-757.735417
 21
303.739876
  0
ARC
  8
OBRYS
 10
-758.485417
 20
303.739876
 40
0.750000
 50
0.000000
 51
90.000000
  0
ARC
  8
OBRYS
 10
-777.985417
 20
303.739876
 40
0.750000
 50
90.000000
 51
180.000000
  0
LINE
  8
OBRYS
 10
-755.735417
 20
294.989876
 11
-755.735417
 21
296.489876
  0
LINE
  8
OBRYS
 10
-843.735417
 20
82.989876
 11
-840.235417
 21
82.989876
  0
LINE
  8
OBRYS
 10
-840.235417
 20
242.989876
 11
-843.735417
 21
242.989876
  0
LINE
  8
OBRYS
 10
-810.235417
 20
236.273844
 11
-840.235417
 21
236.273844
  0
LINE
  8
OBRYS
 10
-840.235417
 20
89.705909
 11
-791.235417
 21
89.706041
  0
ARC
  8
OBRYS
 10
-790.722850
 20
87.235079
 40
2.504314
 50
351.680826
 51
101.826814
  0
ARC
  8
OBRYS
 10
-810.235417
 20
241.273844
 40
5.000000
 50
270.000000
 51
360.000000
  0
LINE
  8
OBRYS
 10
-481.071869
 20
219.491743
 11
-526.163780
 21
257.328348
  0
LINE
  8
OBRYS
 10
-526.163780
 20
48.251404
 11
-481.071869
 21
86.088009
  0
ARC
  8
OBRYS
 10
-524.235417
 20
45.953270
 40
3.000000
 50
130.000000
 51
173.268234
  0
ARC
  8
OBRYS
 10
-524.235417
 20
259.626482
 40
3.000000
 50
186.731766
 51
230.000000
  0
ARC
  8
OBRYS
 10
-783.235417
 20
4.848761
 40
5.000000
 50
180.000000
 51
268.000000
  0
LINE
  8
OBRYS
 10
-783.409914
 20
-0.148194
 11
-780.060919
 21
-0.265143
  0
ARC
  8
OBRYS
 10
-780.235417
 20
-5.262097
 40
5.000000
 50
0.000000
 51
88.000000
  0
LINE
  8
OBRYS
 10
-791.735417
 20
298.989876
 11
-791.735417
 21
294.989876
  0
LINE
  8
OBRYS
 10
-778.735417
 20
294.989876
 11
-778.735417
 21
298.989876
  0
ARC
  8
OBRYS
 10
-779.735417
 20
298.989876
 40
1.000000
 50
0.000000
 51
90.000000
  0
ARC
  8
OBRYS
 10
-790.735417
 20
298.989876
 40
1.000000
 50
90.000000
 51
180.000000
  0
LINE
  8
OBRYS
 10
-678.735417
 20
298.989876
 11
-678.735417
 21
294.989876
  0
LINE
  8
OBRYS
 10
-665.735417
 20
294.989876
 11
-665.735417
 21
298.989876
  0
ARC
  8
OBRYS
 10
-666.735417
 20
298.989876
 40
1.000000
 50
0.000000
 51
90.000000
  0
ARC
  8
OBRYS
 10
-677.735417
 20
298.989876
 40
1.000000
 50
90.000000
 51
180.000000
  0
ARC
  8
OBRYS
 10
-548.735417
 20
298.989876
 40
1.000000
 50
0.000000
 51
90.000000
  0
ARC
  8
OBRYS
 10
-559.735417
 20
298.989876
 40
1.000000
 50
90.000000
 51
180.000000
  0
LINE
  8
OBRYS
 10
-560.735417
 20
298.989876
 11
-560.735417
 21
294.989876
  0
LINE
  8
OBRYS
 10
-547.735417
 20
294.989876
 11
-547.735417
 21
298.989876
  0
LINE
  8
OBRYS
 10
-521.235417
 20
113.945156
 11
-527.235417
 21
113.945156
  0
LINE
  8
OBRYS
 10
-527.235417
 20
95.945156
 11
-521.235417
 21
95.945156
  0
ARC
  8
OBRYS
 10
-521.235417
 20
96.945156
 40
1.000000
 50
270.000000
 51
360.000000
  0
ARC
  8
OBRYS
 10
-521.235417
 20
112.945156
 40
1.000000
 50
0.000000
 51
90.000000
  0
ARC
  8
OBRYS
 10
-521.235417
 20
192.616014
 40
1.000000
 50
270.000000
 51
360.000000
  0
ARC
  8
OBRYS
 10
-521.235417
 20
208.616014
 40
1.000000
 50
0.000000
 51
90.000000
  0
LINE
  8
OBRYS
 10
-521.235417
 20
209.616014
 11
-527.235417
 21
209.616014
  0
LINE
  8
OBRYS
 10
-527.235417
 20
191.616014
 11
-521.235417
 21
191.616014
  0
ARC
  8
OBRYS
 10
-529.235417
 20
15.140303
 40
2.000000
 50
272.000000
 51
360.000000
  0
ARC
  8
OBRYS
 10
-529.235417
 20
290.439449
 40
2.000000
 50
0.000000
 51
88.000000
  0
LINE
  8
OBRYS
 10
-529.165618
 20
292.438231
 11
-539.235417
 21
292.789876
  0
LINE
  8
OBRYS
 10
-539.235417
 20
12.789876
 11
-529.165618
 21
13.141521
  0
ARC
  8
OBRYS
 10
-539.235417
 20
7.789876
 40
5.000000
 50
90.000000
 51
180.000000
  0
LINE
  8
TENKA
  6
PHANTOM2
 10
44.120885
 20
-47.510124
 11
44.120885
 21
-26.510124
  0
ARC
  8
TENKA
  6
PHANTOM2
 10
-107.750471
 20
303.969555
 40
10.146453
 50
182.328906
 51
208.486269
  0
LINE
  8
TENKA
  6
PHANTOM2
 10
-148.089718
 20
299.130230
 11
-148.098572
 21
299.113771
  0
LINE
  8
TENKA
  6
PHANTOM2
 10
-148.098572
 20
299.113771
 11
-147.832341
 21
299.639423
  0
LINE
  8
TENKA
  6
PHANTOM2
 10
-147.832341
 20
299.639423
 11
-147.406903
 21
300.684402
  0
LINE
  8
TENKA
  6
PHANTOM2
 10
-147.406903
 20
300.684402
 11
-146.990950
 21
302.363111
  0
LINE
  8
TENKA
  6
PHANTOM2
 10
-146.990950
 20
302.363111
 11
-146.869686
 21
303.557245
  0
ARC
  8
TENKA
  6
PHANTOM2
 10
-117.159705
 20
299.204283
 40
4.413556
 50
99.505162
 51
119.128048
  0
ARC
  8
TENKA
  6
PHANTOM2
 10
-120.749166
 20
303.493756
 40
2.861327
 50
1.271409
 51
102.371638
  0
ARC
  8
TENKA
  6
PHANTOM2
 10
-144.003979
 20
303.487290
 40
2.866561
 50
77.755329
 51
178.601624
  0
ARC
  8
TENKA
  6
PHANTOM2
 10
-147.598525
 20
299.204283
 40
4.413556
 50
60.871952
 51
80.494838
  0
ARC
  8
TENKA
  6
PHANTOM2
 10
-122.769300
 20
306.102274
 40
1.419377
 50
308.397344
 51
7.544754
  0
ARC
  8
TENKA
  6
PHANTOM2
 10
-132.379115
 20
363.628731
 40
58.388855
 50
259.124144
 51
280.875856
  0
ARC
  8
TENKA
  6
PHANTOM2
 10
-141.988931
 20
306.102274
 40
1.419377
 50
172.455246
 51
231.602656
  0
ARC
  8
TENKA
  6
PHANTOM2
 10
-121.932769
 20
302.240748
 40
2.749497
 50
17.328276
 51
89.060951
  0
ARC
  8
TENKA
  6
PHANTOM2
 10
-142.845525
 20
302.267563
 40
2.722428
 50
90.526095
 51
163.084678
  0
ARC
  8
TENKA
  6
PHANTOM2
 10
-101.151547
 20
305.799170
 40
18.362021
 50
188.580194
 51
207.011968
  0
LINE
  8
TENKA
  6
PHANTOM2
 10
-119.308061
 20
303.059675
 11
-145.450169
 21
303.059675
  0
LINE
  8
TENKA
  6
PHANTOM2
 10
-145.450169
 20
303.059675
 11
-145.733788
 21
301.591990
  0
LINE
  8
TENKA
  6
PHANTOM2
 10
-145.733788
 20
301.591990
 11
-146.368217
 21
299.472775
  0
LINE
  8
TENKA
  6
PHANTOM2
 10
-146.368217
 20
299.472775
 11
-146.926439
 21
298.123341
  0
LINE
  8
TENKA
  6
PHANTOM2
 10
-146.926439
 20
298.123341
 11
-147.259431
 21
297.436537
  0
LINE
  8
TENKA
  6
PHANTOM2
 10
-147.259431
 20
297.436537
 11
-147.247744
 21
297.459570
  0
LINE
  8
TENKA
  6
PHANTOM2
 10
-308.879115
 20
48.489876
 11
-308.879115
 21
37.989876
  0
LINE
  8
TENKA
  6
PHANTOM2
 10
-308.879115
 20
37.989876
 11
-308.879115
 21
27.489876
  0
LINE
  8
TENKA
  6
PHANTOM2
 10
-207.379115
 20
-56.206378
 11
-207.379115
 21
-57.010124
  0
LINE
  8
TENKA
  6
PHANTOM2
 10
-57.379115
 20
-57.010124
 11
-57.379115
 21
-56.206378
  0
LINE
  8
TENKA
  6
PHANTOM2
 10
42.620885
 20
2.989876
 11
37.620885
 21
2.989876
  0
LINE
  8
TENKA
  6
PHANTOM2
 10
37.620885
 20
-7.117938
 11
37.620885
 21
2.989876
  0
ARC
  8
TENKA
  6
PHANTOM2
 10
-957.379115
 20
2.989876
 40
995.000000
 50
0.000000
 51
5.768108
  0
LINE
  8
TENKA
  6
PHANTOM2
 10
-302.379115
 20
2.989876
 11
-302.379115
 21
-7.117938
  0
LINE
  8
TENKA
  6
PHANTOM2
 10
-208.183617
 20
-52.010124
 11
-56.574613
 21
-52.010124
  0
LINE
  8
TENKA
  6
PHANTOM2
 10
-307.379115
 20
2.989876
 11
-302.379115
 21
2.989876
  0
ARC
  8
TENKA
  6
PHANTOM2
 10
692.620885
 20
2.989876
 40
995.000000
 50
174.231892
 51
180.000000
  0
LINE
  8
TENKA
  6
PHANTOM2
 10
-56.879115
 20
303.739876
 11
-77.879115
 21
303.739876
  0
ARC
  8
TENKA
  6
PHANTOM2
 10
-199.133349
 20
-52.450262
 40
9.060964
 50
177.215752
 51
204.490245
  0
ARC
  8
TENKA
  6
PHANTOM2
 10
-66.535021
 20
-52.275771
 40
9.963950
 50
336.766272
 51
1.527731
  0
LINE
  8
TENKA
  6
PHANTOM2
 10
-208.183617
 20
-52.010124
 11
-213.107656
 21
-52.010124
  0
LINE
  8
TENKA
  6
PHANTOM2
 10
-208.183617
 20
-17.010124
 11
-208.183617
 21
-52.010124
  0
LINE
  8
TENKA
  6
PHANTOM2
 10
-56.574613
 20
-52.010124
 11
-56.574613
 21
-17.010124
  0
LINE
  8
TENKA
  6
PHANTOM2
 10
-51.650574
 20
-52.010124
 11
-56.574613
 21
-52.010124
  0
LINE
  8
TENKA
  6
PHANTOM2
 10
-302.315920
 20
103.492389
 11
-297.341236
 21
102.989876
  0
LINE
  8
TENKA
  6
PHANTOM2
 10
37.557689
 20
103.492389
 11
32.583005
 21
102.989876
  0
LINE
  8
TENKA
  6
PHANTOM2
 10
-307.379115
 20
-11.800070
 11
-307.343377
 21
-12.215074
  0
LINE
  8
TENKA
  6
PHANTOM2
 10
-307.343377
 20
-12.215074
 11
-307.245691
 21
-12.395690
  0
LINE
  8
TENKA
  6
PHANTOM2
 10
-307.245691
 20
-12.395690
 11
-307.162628
 21
-12.393680
  0
LINE
  8
TENKA
  6
PHANTOM2
 10
-307.162628
 20
-12.393680
 11
-306.973115
 21
-12.210374
  0
LINE
  8
TENKA
  6
PHANTOM2
 10
-306.973115
 20
-12.210374
 11
-306.844106
 21
-12.021510
  0
LINE
  8
TENKA
  6
PHANTOM2
 10
-306.844106
 20
-12.021510
 11
-306.278887
 21
-11.050119
  0
LINE
  8
TENKA
  6
PHANTOM2
 10
-306.278887
 20
-11.050119
 11
-305.099458
 21
-9.246747
  0
LINE
  8
TENKA
  6
PHANTOM2
 10
-305.099458
 20
-9.246747
 11
-303.849068
 21
-7.930178
  0
LINE
  8
TENKA
  6
PHANTOM2
 10
-303.849068
 20
-7.930178
 11
-302.820830
 21
-7.280034
  0
LINE
  8
TENKA
  6
PHANTOM2
 10
-302.820830
 20
-7.280034
 11
-302.379115
 21
-7.117938
  0
LINE
  8
TENKA
  6
PHANTOM2
 10
37.620885
 20
-7.117938
 11
38.662426
 21
-7.613049
  0
LINE
  8
TENKA
  6
PHANTOM2
 10
38.662426
 20
-7.613049
 11
40.056361
 21
-8.893773
  0
LINE
  8
TENKA
  6
PHANTOM2
 10
40.056361
 20
-8.893773
 11
41.518086
 21
-11.045663
  0
LINE
  8
TENKA
  6
PHANTOM2
 10
41.518086
 20
-11.045663
 11
42.157652
 21
-12.130471
  0
LINE
  8
TENKA
  6
PHANTOM2
 10
42.157652
 20
-12.130471
 11
42.360051
 21
-12.366915
  0
LINE
  8
TENKA
  6
PHANTOM2
 10
42.360051
 20
-12.366915
 11
42.439813
 21
-12.403865
  0
LINE
  8
TENKA
  6
PHANTOM2
 10
42.439813
 20
-12.403865
 11
42.553933
 21
-12.313245
  0
LINE
  8
TENKA
  6
PHANTOM2
 10
42.553933
 20
-12.313245
 11
42.593011
 21
-12.177212
  0
LINE
  8
TENKA
  6
PHANTOM2
 10
42.593011
 20
-12.177212
 11
42.620885
 21
-11.800070
  0
ARC
  8
TENKA
  6
PHANTOM2
 10
-75.724044
 20
51.566347
 40
56.828444
 50
193.812813
 51
39.305688
  0
LINE
  8
TENKA
  6
PHANTOM2
 10
-155.210365
 20
47.840670
 11
-157.263391
 21
71.306875
  0
LINE
  8
TENKA
  6
PHANTOM2
 10
-199.336785
 20
95.597960
 11
-220.685628
 21
85.642831
  0
LINE
  8
TENKA
  6
PHANTOM2
 10
-199.336785
 20
95.597960
 11
-201.449877
 21
100.129499
  0
LINE
  8
TENKA
  6
PHANTOM2
 10
-155.210365
 20
47.840670
 11
-150.229391
 21
48.276448
  0
ARC
  8
TENKA
  6
PHANTOM2
 10
-145.248418
 20
48.712227
 40
10.000000
 50
185.000000
 51
263.574744
  0
LINE
  8
TENKA
  6
PHANTOM2
 10
-157.263391
 20
71.306875
 11
-152.282418
 21
71.742653
  0
LINE
  8
TENKA
  6
PHANTOM2
 10
-220.685628
 20
85.642831
 11
-222.798720
 21
90.174370
  0
ARC
  8
TENKA
  6
PHANTOM2
 10
-224.911811
 20
94.705909
 40
10.000000
 50
216.425256
 51
295.000000
  0
LINE
  8
TENKA
  6
PHANTOM2
 10
-157.263391
 20
71.306875
 11
-155.953693
 21
76.132296
  0
LINE
  8
TENKA
  6
PHANTOM2
 10
-199.336785
 20
95.597960
 11
-195.812697
 21
99.144903
  0
ARC
  8
TENKA
  6
PHANTOM2
 10
-132.379115
 20
162.989876
 40
95.000000
 50
225.185191
 51
254.814809
  0
LINE
  8
TENKA
  6
PHANTOM2
 10
-232.958132
 20
88.768172
 11
-228.934972
 21
91.737041
  0
ARC
  8
TENKA
  6
PHANTOM2
 10
-132.379115
 20
162.989876
 40
125.000000
 50
208.685402
 51
216.425256
  0
ARC
  8
TENKA
  6
PHANTOM2
 10
-132.379115
 20
162.989876
 40
125.000000
 50
323.588558
 51
331.314598
  0
ARC
  8
TENKA
  6
PHANTOM2
 10
-46.496894
 20
-17.087852
 40
10.078019
 50
89.564808
 51
179.558095
  0
LINE
  8
TENKA
  6
PHANTOM2
 10
-51.650574
 20
-17.010124
 11
-56.574613
 21
-17.010124
  0
LINE
  8
TENKA
  6
PHANTOM2
 10
-208.183617
 20
-17.010124
 11
-213.107656
 21
-17.010124
  0
ARC
  8
TENKA
  6
PHANTOM2
 10
-218.261336
 20
-17.087852
 40
10.078019
 50
0.441905
 51
90.435192
  0
LINE
  8
TENKA
  6
PHANTOM2
 10
-218.337883
 20
-7.010124
 11
-218.337883
 21
-12.010124
  0
LINE
  8
TENKA
  6
PHANTOM2
 10
-300.862988
 20
-7.010124
 11
-218.337883
 21
-7.010124
  0
LINE
  8
TENKA
  6
PHANTOM2
 10
-302.379115
 20
-7.117938
 11
-301.671832
 21
-12.064031
  0
LINE
  8
TENKA
  6
PHANTOM2
 10
-300.862988
 20
-7.010124
 11
-300.862988
 21
-12.010124
  0
ARC
  8
TENKA
  6
PHANTOM2
 10
-300.863110
 20
-17.722506
 40
10.712382
 50
89.999347
 51
98.135750
  0
LINE
  8
TENKA
  6
PHANTOM2
 10
36.913602
 20
-12.064031
 11
37.620885
 21
-7.117938
  0
ARC
  8
TENKA
  6
PHANTOM2
 10
36.105063
 20
-17.719937
 40
10.709813
 50
81.863273
 51
90.001630
  0
LINE
  8
TENKA
  6
PHANTOM2
 10
36.104758
 20
-12.010124
 11
36.104758
 21
-7.010124
  0
LINE
  8
TENKA
  6
PHANTOM2
 10
-46.420347
 20
-7.010124
 11
36.104758
 21
-7.010124
  0
LINE
  8
TENKA
  6
PHANTOM2
 10
-46.420347
 20
-12.010124
 11
-46.420347
 21
-7.010124
  0
LINE
  8
TENKA
  6
PHANTOM2
 10
-126.065323
 20
39.227020
 11
-130.869634
 21
38.049419
  0
LINE
  8
TENKA
  6
PHANTOM2
 10
-146.367487
 20
38.775040
 11
-145.807952
 21
43.743634
  0
ARC
  8
TENKA
  6
PHANTOM2
 10
-132.379115
 20
162.989876
 40
125.000000
 50
263.574744
 51
270.673839
  0
LINE
  8
TENKA
  6
PHANTOM2
 10
32.583005
 20
102.989876
 11
-22.720554
 21
102.989876
  0
LINE
  8
TENKA
  6
PHANTOM2
 10
32.583005
 20
102.989876
 11
32.430712
 21
104.090627
  0
LINE
  8
TENKA
  6
PHANTOM2
 10
32.430712
 20
104.090627
 11
32.222684
 21
105.280401
  0
LINE
  8
TENKA
  6
PHANTOM2
 10
32.222684
 20
105.280401
 11
31.958921
 21
106.556695
  0
LINE
  8
TENKA
  6
PHANTOM2
 10
31.958921
 20
106.556695
 11
31.639424
 21
107.916022
  0
LINE
  8
TENKA
  6
PHANTOM2
 10
31.639424
 20
107.916022
 11
31.264192
 21
109.353752
  0
LINE
  8
TENKA
  6
PHANTOM2
 10
31.264192
 20
109.353752
 11
30.833225
 21
110.863944
  0
LINE
  8
TENKA
  6
PHANTOM2
 10
30.833225
 20
110.863944
 11
30.396640
 21
112.271447
  0
LINE
  8
TENKA
  6
PHANTOM2
 10
30.396640
 20
112.271447
 11
30.290060
 21
112.576478
  0
LINE
  8
TENKA
  6
PHANTOM2
 10
30.290060
 20
112.576478
 11
30.220111
 21
112.744078
  0
LINE
  8
TENKA
  6
PHANTOM2
 10
30.220111
 20
112.744078
 11
29.623455
 21
113.556017
  0
LINE
  8
TENKA
  6
PHANTOM2
 10
29.623455
 20
113.556017
 11
28.596373
 21
114.521859
  0
LINE
  8
TENKA
  6
PHANTOM2
 10
28.596373
 20
114.521859
 11
27.528439
 21
115.386175
  0
LINE
  8
TENKA
  6
PHANTOM2
 10
27.528439
 20
115.386175
 11
26.512380
 21
116.247683
  0
LINE
  8
TENKA
  6
PHANTOM2
 10
26.512380
 20
116.247683
 11
25.680928
 21
117.175778
  0
LINE
  8
TENKA
  6
PHANTOM2
 10
25.680928
 20
117.175778
 11
25.442116
 21
117.596809
  0
LINE
  8
TENKA
  6
PHANTOM2
 10
25.442116
 20
117.596809
 11
25.321246
 21
117.989876
  0
LINE
  8
TENKA
  6
PHANTOM2
 10
-290.079476
 20
117.989876
 11
-290.200254
 21
117.597376
  0
LINE
  8
TENKA
  6
PHANTOM2
 10
-290.200254
 20
117.597376
 11
-290.439083
 21
117.176241
  0
LINE
  8
TENKA
  6
PHANTOM2
 10
-290.439083
 20
117.176241
 11
-291.711593
 21
115.856798
  0
LINE
  8
TENKA
  6
PHANTOM2
 10
-291.711593
 20
115.856798
 11
-293.356395
 21
114.509471
  0
LINE
  8
TENKA
  6
PHANTOM2
 10
-293.356395
 20
114.509471
 11
-294.370082
 21
113.561098
  0
LINE
  8
TENKA
  6
PHANTOM2
 10
-294.370082
 20
113.561098
 11
-294.726589
 21
113.123390
  0
LINE
  8
TENKA
  6
PHANTOM2
 10
-294.726589
 20
113.123390
 11
-294.867258
 21
112.913919
  0
LINE
  8
TENKA
  6
PHANTOM2
 10
-294.867258
 20
112.913919
 11
-294.928197
 21
112.811558
  0
LINE
  8
TENKA
  6
PHANTOM2
 10
-294.928197
 20
112.811558
 11
-294.956317
 21
112.760975
  0
LINE
  8
TENKA
  6
PHANTOM2
 10
-294.956317
 20
112.760975
 11
-294.969790
 21
112.735833
  0
LINE
  8
TENKA
  6
PHANTOM2
 10
-294.969790
 20
112.735833
 11
-294.976380
 21
112.723300
  0
LINE
  8
TENKA
  6
PHANTOM2
 10
-294.976380
 20
112.723300
 11
-294.979638
 21
112.717042
  0
LINE
  8
TENKA
  6
PHANTOM2
 10
-294.979638
 20
112.717042
 11
-294.981258
 21
112.713916
  0
LINE
  8
TENKA
  6
PHANTOM2
 10
-294.981258
 20
112.713916
 11
-294.982065
 21
112.712354
  0
LINE
  8
TENKA
  6
PHANTOM2
 10
-294.982865
 20
112.710804
 11
-295.101906
 21
112.403190
  0
LINE
  8
TENKA
  6
PHANTOM2
 10
-295.101906
 20
112.403190
 11
-295.307070
 21
111.772227
  0
LINE
  8
TENKA
  6
PHANTOM2
 10
-295.307070
 20
111.772227
 11
-295.598364
 21
110.811553
  0
LINE
  8
TENKA
  6
PHANTOM2
 10
-295.598364
 20
110.811553
 11
-296.722934
 21
106.509054
  0
LINE
  8
TENKA
  6
PHANTOM2
 10
-296.722934
 20
106.509054
 11
-297.341236
 21
102.989876
  0
LINE
  8
TENKA
  6
PHANTOM2
 10
-242.037676
 20
102.989876
 11
-297.341236
 21
102.989876
  0
LINE
  8
TENKA
  6
PHANTOM2
 10
-31.782205
 20
88.792425
 11
-35.806082
 21
91.760323
  0
LINE
  8
TENKA
  6
PHANTOM2
 10
-31.751482
 20
87.564762
 11
-35.618012
 21
84.399403
  0
ARC
  8
TENKA
  6
PHANTOM2
 10
-30.977122
 20
88.198357
 40
1.000538
 50
143.576478
 51
219.290629
  0
ARC
  8
TENKA
  6
PHANTOM2
 10
-75.724044
 20
51.566347
 40
51.831490
 50
193.772434
 51
39.305688
  0
LINE
  8
TENKA
  6
PHANTOM2
 10
-35.618012
 20
84.399403
 11
-35.635773
 21
84.376544
  0
LINE
  8
TENKA
  6
PHANTOM2
 10
-17.091217
 20
117.989876
 11
-17.811726
 21
114.998118
  0
LINE
  8
TENKA
  6
PHANTOM2
 10
-246.946505
 20
114.998118
 11
-247.667013
 21
117.989876
  0
LINE
  8
TENKA
  6
PHANTOM2
 10
-17.811726
 20
114.998118
 11
-18.625759
 21
115.265414
  0
LINE
  8
TENKA
  6
PHANTOM2
 10
-18.625759
 20
115.265414
 11
-19.414569
 21
115.462418
  0
LINE
  8
TENKA
  6
PHANTOM2
 10
-19.414569
 20
115.462418
 11
-20.153717
 21
115.583023
  0
LINE
  8
TENKA
  6
PHANTOM2
 10
-20.153717
 20
115.583023
 11
-20.820299
 21
115.623495
  0
LINE
  8
TENKA
  6
PHANTOM2
 10
-20.820299
 20
115.623495
 11
-21.393662
 21
115.582577
  0
LINE
  8
TENKA
  6
PHANTOM2
 10
-21.393662
 20
115.582577
 11
-21.856040
 21
115.461539
  0
LINE
  8
TENKA
  6
PHANTOM2
 10
-21.856040
 20
115.461539
 11
-22.193108
 21
115.264131
  0
LINE
  8
TENKA
  6
PHANTOM2
 10
-22.193108
 20
115.264131
 11
-22.394421
 21
114.996469
  0
LINE
  8
TENKA
  6
PHANTOM2
 10
-22.720554
 20
102.989876
 11
-27.106896
 21
105.389876
  0
LINE
  8
TENKA
  6
PHANTOM2
 10
-17.811726
 20
114.998118
 11
-20.051285
 21
109.181516
  0
LINE
  8
TENKA
  6
PHANTOM2
 10
-20.051285
 20
109.181516
 11
-22.720554
 21
102.989876
  0
LINE
  8
TENKA
  6
PHANTOM2
 10
-242.037676
 20
102.989876
 11
-237.651334
 21
105.389876
  0
LINE
  8
TENKA
  6
PHANTOM2
 10
-246.946505
 20
114.998118
 11
-246.132472
 21
115.265414
  0
LINE
  8
TENKA
  6
PHANTOM2
 10
-246.132472
 20
115.265414
 11
-245.343661
 21
115.462418
  0
LINE
  8
TENKA
  6
PHANTOM2
 10
-245.343661
 20
115.462418
 11
-244.604514
 21
115.583023
  0
LINE
  8
TENKA
  6
PHANTOM2
 10
-244.604514
 20
115.583023
 11
-243.937931
 21
115.623495
  0
LINE
  8
TENKA
  6
PHANTOM2
 10
-243.937931
 20
115.623495
 11
-243.364568
 21
115.582577
  0
LINE
  8
TENKA
  6
PHANTOM2
 10
-243.364568
 20
115.582577
 11
-242.902190
 21
115.461539
  0
LINE
  8
TENKA
  6
PHANTOM2
 10
-242.902190
 20
115.461539
 11
-242.565122
 21
115.264131
  0
LINE
  8
TENKA
  6
PHANTOM2
 10
-242.565122
 20
115.264131
 11
-242.363809
 21
114.996469
  0
ARC
  8
TENKA
  6
PHANTOM2
 10
-91.896346
 20
171.373350
 40
164.980964
 50
199.980938
 51
204.487400
  0
ARC
  8
TENKA
  6
PHANTOM2
 10
-75.724044
 20
51.566347
 40
51.714540
 50
193.772434
 51
39.276543
  0
LINE
  8
TENKA
  6
PHANTOM2
 10
-39.559986
 20
81.141569
 11
-35.691847
 21
84.304961
  0
ARC
  8
TENKA
  6
PHANTOM2
 10
-31.045293
 20
88.104155
 40
10.998982
 50
186.434917
 51
219.273355
  0
ARC
  8
TENKA
  6
PHANTOM2
 10
-75.724044
 20
51.566347
 40
46.717586
 50
193.772434
 51
39.276543
  0
LINE
  8
TENKA
  6
PHANTOM2
 10
-121.098449
 20
40.444468
 11
-125.951736
 21
39.254862
  0
ARC
  8
TENKA
  6
PHANTOM2
 10
-131.085233
 20
37.996573
 40
10.282414
 50
13.772434
 51
14.130508
  0
ARC
  8
TENKA
  6
PHANTOM2
 10
-131.085233
 20
37.996573
 40
5.168510
 50
13.772434
 51
76.095248
  0
LINE
  8
TENKA
  6
PHANTOM2
 10
-125.951736
 20
39.254862
 11
-126.065323
 21
39.227020
  0
ARC
  8
TENKA
  6
PHANTOM2
 10
-131.085233
 20
37.996573
 40
5.285460
 50
13.772434
 51
14.130508
  0
LINE
  8
TENKA
  6
PHANTOM2
 10
-247.667013
 20
117.989876
 11
-246.745801
 21
118.051600
  0
LINE
  8
TENKA
  6
PHANTOM2
 10
-246.745801
 20
118.051600
 11
-245.856684
 21
118.024075
  0
LINE
  8
TENKA
  6
PHANTOM2
 10
-245.856684
 20
118.024075
 11
-245.030639
 21
117.908259
  0
LINE
  8
TENKA
  6
PHANTOM2
 10
-245.030639
 20
117.908259
 11
-244.296444
 21
117.708186
  0
LINE
  8
TENKA
  6
PHANTOM2
 10
-244.296444
 20
117.708186
 11
-243.679679
 21
117.430829
  0
LINE
  8
TENKA
  6
PHANTOM2
 10
-243.679679
 20
117.430829
 11
-243.201832
 21
117.085849
  0
LINE
  8
TENKA
  6
PHANTOM2
 10
-243.201832
 20
117.085849
 11
-242.879550
 21
116.685266
  0
LINE
  8
TENKA
  6
PHANTOM2
 10
-242.879550
 20
116.685266
 11
-242.724063
 21
116.243035
  0
LINE
  8
TENKA
  6
PHANTOM2
 10
-17.091217
 20
117.989876
 11
-18.012429
 21
118.051600
  0
LINE
  8
TENKA
  6
PHANTOM2
 10
-18.012429
 20
118.051600
 11
-18.901546
 21
118.024075
  0
LINE
  8
TENKA
  6
PHANTOM2
 10
-18.901546
 20
118.024075
 11
-19.727591
 21
117.908259
  0
LINE
  8
TENKA
  6
PHANTOM2
 10
-19.727591
 20
117.908259
 11
-20.461786
 21
117.708186
  0
LINE
  8
TENKA
  6
PHANTOM2
 10
-20.461786
 20
117.708186
 11
-21.078551
 21
117.430829
  0
LINE
  8
TENKA
  6
PHANTOM2
 10
-21.078551
 20
117.430829
 11
-21.556398
 21
117.085849
  0
LINE
  8
TENKA
  6
PHANTOM2
 10
-21.556398
 20
117.085849
 11
-21.878680
 21
116.685266
  0
LINE
  8
TENKA
  6
PHANTOM2
 10
-21.878680
 20
116.685266
 11
-22.034167
 21
116.243035
  0
ARC
  8
TENKA
  6
PHANTOM2
 10
-65.421445
 20
95.597960
 40
2.000000
 50
65.000000
 51
134.814809
  0
ARC
  8
TENKA
  6
PHANTOM2
 10
-132.379115
 20
162.989876
 40
93.000000
 50
310.879875
 51
314.814809
  0
LINE
  8
TENKA
  6
PHANTOM2
 10
-68.945533
 20
99.144903
 11
-66.831080
 21
97.016737
  0
ARC
  8
TENKA
  6
PHANTOM2
 10
-119.509813
 20
48.712227
 40
8.000000
 50
276.425256
 51
310.236854
  0
ARC
  8
TENKA
  6
PHANTOM2
 10
-75.724044
 20
51.566347
 40
39.644245
 50
89.645777
 51
193.064012
  0
LINE
  8
TENKA
  6
PHANTOM2
 10
-75.460406
 20
94.209320
 11
-75.478951
 21
91.209834
  0
ARC
  8
TENKA
  6
PHANTOM2
 10
-75.442044
 20
97.213043
 40
6.003323
 50
269.647757
 51
310.881177
  0
LINE
  8
TENKA
  6
PHANTOM2
 10
-73.476340
 20
94.942370
 11
-71.512914
 21
92.674120
  0
LINE
  8
TENKA
  6
PHANTOM2
 10
-63.308353
 20
100.129499
 11
-64.576208
 21
97.410575
  0
LINE
  8
TENKA
  6
PHANTOM2
 10
-41.974979
 20
86.871449
 11
-64.576208
 21
97.410575
  0
LINE
  8
TENKA
  6
PHANTOM2
 10
-121.113942
 20
40.506833
 11
-125.959700
 21
39.286919
  0
LINE
  8
TENKA
  6
PHANTOM2
 10
-127.736352
 20
43.079723
 11
-127.751580
 21
43.076080
  0
LINE
  8
TENKA
  6
PHANTOM2
 10
-127.751580
 20
43.076080
 11
-127.720076
 21
43.068390
  0
LINE
  8
TENKA
  6
PHANTOM2
 10
-127.720076
 20
43.068390
 11
-127.612126
 21
43.052105
  0
LINE
  8
TENKA
  6
PHANTOM2
 10
-127.612126
 20
43.052105
 11
-127.187466
 21
42.995918
  0
LINE
  8
TENKA
  6
PHANTOM2
 10
-127.187466
 20
42.995918
 11
-124.982415
 21
42.606145
  0
LINE
  8
TENKA
  6
PHANTOM2
 10
-124.982415
 20
42.606145
 11
-122.737654
 21
41.857623
  0
LINE
  8
TENKA
  6
PHANTOM2
 10
-122.737654
 20
41.857623
 11
-121.832875
 21
41.314885
  0
LINE
  8
TENKA
  6
PHANTOM2
 10
-121.832875
 20
41.314885
 11
-121.281495
 21
40.770005
  0
LINE
  8
TENKA
  6
PHANTOM2
 10
-121.281495
 20
40.770005
 11
-121.113942
 21
40.506833
  0
ARC
  8
TENKA
  6
PHANTOM2
 10
-132.379115
 20
162.989876
 40
123.000000
 50
275.254899
 51
276.425256
  0
LINE
  8
TENKA
  6
PHANTOM2
 10
-118.950278
 20
43.743634
 11
-118.614557
 21
40.762478
  0
LINE
  8
TENKA
  6
PHANTOM2
 10
-10.879115
 20
298.989876
 11
-23.879115
 21
298.989876
  0
LINE
  8
TENKA
  6
PHANTOM2
 10
-240.879115
 20
298.989876
 11
-253.879115
 21
298.989876
  0
LINE
  8
TENKA
  6
PHANTOM2
 10
-37.008011
 20
87.431822
 11
-36.450644
 21
85.496290
  0
LINE
  8
TENKA
  6
PHANTOM2
 10
-36.450644
 20
85.496290
 11
-35.691847
 21
84.304961
  0
LINE
  8
TENKA
  6
PHANTOM2
 10
-35.635773
 20
84.376544
 11
-35.691847
 21
84.304961
  0
ARC
  8
TENKA
  6
PHANTOM2
 10
-30.997255
 20
88.177332
 40
5.996819
 50
143.587140
 51
219.331083
  0
LINE
  8
TENKA
  6
PHANTOM2
 10
-41.974979
 20
86.871449
 11
-42.544227
 21
87.991517
  0
LINE
  8
TENKA
  6
PHANTOM2
 10
-42.544227
 20
87.991517
 11
-42.637084
 21
88.323541
  0
LINE
  8
TENKA
  6
PHANTOM2
 10
-42.637084
 20
88.323541
 11
-42.686485
 21
88.972213
  0
LINE
  8
TENKA
  6
PHANTOM2
 10
-42.686485
 20
88.972213
 11
-42.636193
 21
89.264016
  0
LINE
  8
TENKA
  6
PHANTOM2
 10
-42.636193
 20
89.264016
 11
-42.449542
 21
89.687692
  0
LINE
  8
TENKA
  6
PHANTOM2
 10
-42.449542
 20
89.687692
 11
-42.113258
 21
90.061866
  0
LINE
  8
TENKA
  6
PHANTOM2
 10
-42.113258
 20
90.061866
 11
-41.959511
 21
90.174370
  0
LINE
  8
TENKA
  6
PHANTOM2
 10
-41.974979
 20
86.871449
 11
-37.008011
 21
87.431822
  0
ARC
  8
TENKA
  6
PHANTOM2
 10
-31.231418
 20
88.158814
 40
5.822160
 50
143.703138
 51
187.173041
  0
LINE
  8
TENKA
  6
PHANTOM2
 10
-21.241352
 20
127.687715
 11
-22.016358
 21
126.780436
  0
LINE
  8
TENKA
  6
PHANTOM2
 10
-22.016358
 20
126.780436
 11
-22.743523
 21
125.774838
  0
LINE
  8
TENKA
  6
PHANTOM2
 10
-22.743523
 20
125.774838
 11
-23.377960
 21
124.732997
  0
LINE
  8
TENKA
  6
PHANTOM2
 10
-23.377960
 20
124.732997
 11
-23.880504
 21
123.719226
  0
LINE
  8
TENKA
  6
PHANTOM2
 10
-23.880504
 20
123.719226
 11
-24.220134
 21
122.796105
  0
LINE
  8
TENKA
  6
PHANTOM2
 10
-24.220134
 20
122.796105
 11
-24.375885
 21
122.020616
  0
LINE
  8
TENKA
  6
PHANTOM2
 10
-24.375885
 20
122.020616
 11
-24.338142
 21
121.440632
  0
LINE
  8
TENKA
  6
PHANTOM2
 10
-24.338142
 20
121.440632
 11
-24.109235
 21
121.091955
  0
LINE
  8
TENKA
  6
PHANTOM2
 10
-243.516878
 20
127.687715
 11
-242.741872
 21
126.780436
  0
LINE
  8
TENKA
  6
PHANTOM2
 10
-242.741872
 20
126.780436
 11
-242.014707
 21
125.774838
  0
LINE
  8
TENKA
  6
PHANTOM2
 10
-242.014707
 20
125.774838
 11
-241.380270
 21
124.732997
  0
LINE
  8
TENKA
  6
PHANTOM2
 10
-241.380270
 20
124.732997
 11
-240.877726
 21
123.719226
  0
LINE
  8
TENKA
  6
PHANTOM2
 10
-240.877726
 20
123.719226
 11
-240.538096
 21
122.796105
  0
LINE
  8
TENKA
  6
PHANTOM2
 10
-240.538096
 20
122.796105
 11
-240.382345
 21
122.020616
  0
LINE
  8
TENKA
  6
PHANTOM2
 10
-240.382345
 20
122.020616
 11
-240.420089
 21
121.440632
  0
LINE
  8
TENKA
  6
PHANTOM2
 10
-240.420089
 20
121.440632
 11
-240.648996
 21
121.091955
  0
LINE
  8
TENKA
  6
PHANTOM2
 10
-224.221062
 20
141.198791
 11
-223.446056
 21
140.291511
  0
LINE
  8
TENKA
  6
PHANTOM2
 10
-223.446056
 20
140.291511
 11
-222.718891
 21
139.285914
  0
LINE
  8
TENKA
  6
PHANTOM2
 10
-222.718891
 20
139.285914
 11
-222.084454
 21
138.244073
  0
LINE
  8
TENKA
  6
PHANTOM2
 10
-222.084454
 20
138.244073
 11
-221.581910
 21
137.230302
  0
LINE
  8
TENKA
  6
PHANTOM2
 10
-221.581910
 20
137.230302
 11
-221.242280
 21
136.307180
  0
LINE
  8
TENKA
  6
PHANTOM2
 10
-221.242280
 20
136.307180
 11
-221.086529
 21
135.531692
  0
LINE
  8
TENKA
  6
PHANTOM2
 10
-221.086529
 20
135.531692
 11
-221.124273
 21
134.951708
  0
LINE
  8
TENKA
  6
PHANTOM2
 10
-221.124273
 20
134.951708
 11
-221.353180
 21
134.603031
  0
LINE
  8
TENKA
  6
PHANTOM2
 10
-40.537168
 20
141.198791
 11
-41.312174
 21
140.291511
  0
LINE
  8
TENKA
  6
PHANTOM2
 10
-41.312174
 20
140.291511
 11
-42.039339
 21
139.285914
  0
LINE
  8
TENKA
  6
PHANTOM2
 10
-42.039339
 20
139.285914
 11
-42.673776
 21
138.244073
  0
LINE
  8
TENKA
  6
PHANTOM2
 10
-42.673776
 20
138.244073
 11
-43.176320
 21
137.230302
  0
LINE
  8
TENKA
  6
PHANTOM2
 10
-43.176320
 20
137.230302
 11
-43.515950
 21
136.307180
  0
LINE
  8
TENKA
  6
PHANTOM2
 10
-43.515950
 20
136.307180
 11
-43.671701
 21
135.531692
  0
LINE
  8
TENKA
  6
PHANTOM2
 10
-43.671701
 20
135.531692
 11
-43.633958
 21
134.951708
  0
LINE
  8
TENKA
  6
PHANTOM2
 10
-43.633958
 20
134.951708
 11
-43.405051
 21
134.603031
  0
LINE
  8
TENKA
  6
PHANTOM2
 10
-40.537168
 20
141.198791
 11
-21.241352
 21
127.687715
  0
ARC
  8
TENKA
  6
PHANTOM2
 10
-26.977117
 20
119.496195
 40
10.000000
 50
351.336455
 51
55.000000
  0
LINE
  8
TENKA
  6
PHANTOM2
 10
-17.091217
 20
117.989876
 11
25.321246
 21
117.989876
  0
LINE
  8
TENKA
  6
PHANTOM2
 10
-243.516878
 20
127.687715
 11
-224.221062
 21
141.198791
  0
LINE
  8
TENKA
  6
PHANTOM2
 10
-290.079476
 20
117.989876
 11
-247.667013
 21
117.989876
  0
ARC
  8
TENKA
  6
PHANTOM2
 10
-237.781113
 20
119.496195
 40
10.000000
 50
125.000000
 51
188.663545
  0
LINE
  8
TENKA
  6
PHANTOM2
 10
-125.879115
 20
298.989876
 11
-138.879115
 21
298.989876
  0
LINE
  8
TENKA
  6
PHANTOM2
 10
-300.005743
 20
124.201997
 11
-299.942286
 21
123.253408
  0
LINE
  8
TENKA
  6
PHANTOM2
 10
-299.942286
 20
123.253408
 11
-299.488959
 21
122.233656
  0
LINE
  8
TENKA
  6
PHANTOM2
 10
-299.488959
 20
122.233656
 11
-298.609683
 21
121.201003
  0
LINE
  8
TENKA
  6
PHANTOM2
 10
-298.609683
 20
121.201003
 11
-297.321285
 21
120.226391
  0
LINE
  8
TENKA
  6
PHANTOM2
 10
-297.321285
 20
120.226391
 11
-295.698772
 21
119.379277
  0
LINE
  8
TENKA
  6
PHANTOM2
 10
-295.698772
 20
119.379277
 11
-293.861851
 21
118.712062
  0
LINE
  8
TENKA
  6
PHANTOM2
 10
-293.861851
 20
118.712062
 11
-291.947283
 21
118.249923
  0
LINE
  8
TENKA
  6
PHANTOM2
 10
-291.947283
 20
118.249923
 11
-290.079476
 21
117.989876
  0
LINE
  8
TENKA
  6
PHANTOM2
 10
-262.713125
 20
156.028352
 11
-262.918381
 21
155.254284
  0
LINE
  8
TENKA
  6
PHANTOM2
 10
-262.918381
 20
155.254284
 11
-263.266934
 21
154.450087
  0
LINE
  8
TENKA
  6
PHANTOM2
 10
-263.266934
 20
154.450087
 11
-263.758784
 21
153.615763
  0
LINE
  8
TENKA
  6
PHANTOM2
 10
-263.758784
 20
153.615763
 11
-265.145922
 21
151.855620
  0
LINE
  8
TENKA
  6
PHANTOM2
 10
-265.145922
 20
151.855620
 11
-266.892014
 21
149.988244
  0
LINE
  8
TENKA
  6
PHANTOM2
 10
-266.892014
 20
149.988244
 11
-268.601372
 21
148.196180
  0
LINE
  8
TENKA
  6
PHANTOM2
 10
-268.601372
 20
148.196180
 11
-270.007566
 21
146.359167
  0
LINE
  8
TENKA
  6
PHANTOM2
 10
-270.007566
 20
146.359167
 11
-271.274296
 21
144.510421
  0
LINE
  8
TENKA
  6
PHANTOM2
 10
-271.274296
 20
144.510421
 11
-276.221477
 21
137.170969
  0
LINE
  8
TENKA
  6
PHANTOM2
 10
-276.221477
 20
137.170969
 11
-279.757980
 21
131.804972
  0
LINE
  8
TENKA
  6
PHANTOM2
 10
-279.757980
 20
131.804972
 11
-280.217768
 21
131.099769
  0
LINE
  8
TENKA
  6
PHANTOM2
 10
-280.217768
 20
131.099769
 11
-280.676786
 21
130.393985
  0
LINE
  8
TENKA
  6
PHANTOM2
 10
-280.676786
 20
130.393985
 11
-281.135034
 21
129.687618
  0
LINE
  8
TENKA
  6
PHANTOM2
 10
-281.135034
 20
129.687618
 11
-281.592511
 21
128.980669
  0
LINE
  8
TENKA
  6
PHANTOM2
 10
-281.592511
 20
128.980669
 11
-282.049219
 21
128.273139
  0
LINE
  8
TENKA
  6
PHANTOM2
 10
-282.049219
 20
128.273139
 11
-282.505157
 21
127.565027
  0
LINE
  8
TENKA
  6
PHANTOM2
 10
-282.505157
 20
127.565027
 11
-283.136591
 21
126.585606
  0
LINE
  8
TENKA
  6
PHANTOM2
 10
-283.136591
 20
126.585606
 11
-283.610024
 21
125.856857
  0
LINE
  8
TENKA
  6
PHANTOM2
 10
-283.610024
 20
125.856857
 11
-283.925456
 21
125.378781
  0
LINE
  8
TENKA
  6
PHANTOM2
 10
-283.925456
 20
125.378781
 11
-284.082886
 21
125.151378
  0
LINE
  8
TENKA
  6
PHANTOM2
 10
-284.082886
 20
125.151378
 11
-284.628947
 21
124.512492
  0
LINE
  8
TENKA
  6
PHANTOM2
 10
-284.628947
 20
124.512492
 11
-285.396899
 21
123.728354
  0
LINE
  8
TENKA
  6
PHANTOM2
 10
-285.396899
 20
123.728354
 11
-286.386742
 21
122.798964
  0
LINE
  8
TENKA
  6
PHANTOM2
 10
-286.386742
 20
122.798964
 11
-287.206928
 21
122.042497
  0
LINE
  8
TENKA
  6
PHANTOM2
 10
-287.206928
 20
122.042497
 11
-287.881876
 21
121.398486
  0
LINE
  8
TENKA
  6
PHANTOM2
 10
-287.881876
 20
121.398486
 11
-288.411585
 21
120.866933
  0
LINE
  8
TENKA
  6
PHANTOM2
 10
-288.411585
 20
120.866933
 11
-288.796054
 21
120.447836
  0
LINE
  8
TENKA
  6
PHANTOM2
 10
-288.796054
 20
120.447836
 11
-289.689831
 21
119.166697
  0
LINE
  8
TENKA
  6
PHANTOM2
 10
-289.689831
 20
119.166697
 11
-290.079476
 21
117.989876
  0
LINE
  8
TENKA
  6
PHANTOM2
 10
25.321246
 20
117.989876
 11
24.931627
 21
119.166482
  0
LINE
  8
TENKA
  6
PHANTOM2
 10
24.931627
 20
119.166482
 11
23.919163
 21
120.582439
  0
LINE
  8
TENKA
  6
PHANTOM2
 10
23.919163
 20
120.582439
 11
22.663910
 21
121.839898
  0
LINE
  8
TENKA
  6
PHANTOM2
 10
22.663910
 20
121.839898
 11
20.826647
 21
123.546660
  0
LINE
  8
TENKA
  6
PHANTOM2
 10
20.826647
 20
123.546660
 11
19.539957
 21
124.885417
  0
LINE
  8
TENKA
  6
PHANTOM2
 10
19.539957
 20
124.885417
 11
19.193164
 21
125.340170
  0
LINE
  8
TENKA
  6
PHANTOM2
 10
19.193164
 20
125.340170
 11
18.697532
 21
126.093440
  0
LINE
  8
TENKA
  6
PHANTOM2
 10
18.697532
 20
126.093440
 11
17.856402
 21
127.394848
  0
LINE
  8
TENKA
  6
PHANTOM2
 10
17.856402
 20
127.394848
 11
17.233431
 21
128.362408
  0
LINE
  8
TENKA
  6
PHANTOM2
 10
17.233431
 20
128.362408
 11
16.657831
 21
129.253554
  0
LINE
  8
TENKA
  6
PHANTOM2
 10
16.657831
 20
129.253554
 11
11.463246
 21
137.170969
  0
LINE
  8
TENKA
  6
PHANTOM2
 10
11.463246
 20
137.170969
 11
9.866780
 21
139.560304
  0
LINE
  8
TENKA
  6
PHANTOM2
 10
9.866780
 20
139.560304
 11
8.262298
 21
141.941431
  0
LINE
  8
TENKA
  6
PHANTOM2
 10
8.262298
 20
141.941431
 11
6.649802
 21
144.314351
  0
LINE
  8
TENKA
  6
PHANTOM2
 10
6.649802
 20
144.314351
 11
5.029290
 21
146.679063
  0
LINE
  8
TENKA
  6
PHANTOM2
 10
5.029290
 20
146.679063
 11
3.868149
 21
148.147848
  0
LINE
  8
TENKA
  6
PHANTOM2
 10
3.868149
 20
148.147848
 11
2.364666
 21
149.772565
  0
LINE
  8
TENKA
  6
PHANTOM2
 10
2.364666
 20
149.772565
 11
0.896593
 21
151.295890
  0
LINE
  8
TENKA
  6
PHANTOM2
 10
0.896593
 20
151.295890
 11
-1.007575
 21
153.625904
  0
LINE
  8
TENKA
  6
PHANTOM2
 10
-1.007575
 20
153.625904
 11
-1.677393
 21
154.840333
  0
LINE
  8
TENKA
  6
PHANTOM2
 10
-1.677393
 20
154.840333
 11
-2.045105
 21
156.028352
  0
LINE
  8
TENKA
  6
PHANTOM2
 10
35.247512
 20
124.201997
 11
35.184056
 21
123.253408
  0
LINE
  8
TENKA
  6
PHANTOM2
 10
35.184056
 20
123.253408
 11
34.730729
 21
122.233656
  0
LINE
  8
TENKA
  6
PHANTOM2
 10
34.730729
 20
122.233656
 11
33.851453
 21
121.201003
  0
LINE
  8
TENKA
  6
PHANTOM2
 10
33.851453
 20
121.201003
 11
32.563055
 21
120.226391
  0
LINE
  8
TENKA
  6
PHANTOM2
 10
32.563055
 20
120.226391
 11
30.940542
 21
119.379277
  0
LINE
  8
TENKA
  6
PHANTOM2
 10
30.940542
 20
119.379277
 11
29.103621
 21
118.712062
  0
LINE
  8
TENKA
  6
PHANTOM2
 10
29.103621
 20
118.712062
 11
27.189053
 21
118.249923
  0
LINE
  8
TENKA
  6
PHANTOM2
 10
27.189053
 20
118.249923
 11
25.321246
 21
117.989876
  0
LINE
  8
TENKA
  6
PHANTOM2
 10
-27.379115
 20
294.989876
 11
-27.379115
 21
294.489876
  0
LINE
  8
TENKA
  6
PHANTOM2
 10
-237.379115
 20
294.489876
 11
-237.379115
 21
294.989876
  0
LINE
  8
TENKA
  6
PHANTOM2
 10
-27.379115
 20
294.489876
 11
-27.379115
 21
282.989876
  0
LINE
  8
TENKA
  6
PHANTOM2
 10
-237.379115
 20
294.489876
 11
-237.379115
 21
282.989876
  0
LINE
  8
TENKA
  6
PHANTOM2
 10
-262.713125
 20
171.028352
 11
-292.259538
 21
176.225418
  0
LINE
  8
TENKA
  6
PHANTOM2
 10
-292.259538
 20
176.225418
 11
-292.368966
 21
175.134572
  0
LINE
  8
TENKA
  6
PHANTOM2
 10
-292.368966
 20
175.134572
 11
-292.327848
 21
174.105594
  0
LINE
  8
TENKA
  6
PHANTOM2
 10
-292.327848
 20
174.105594
 11
-292.169943
 21
173.151848
  0
LINE
  8
TENKA
  6
PHANTOM2
 10
-292.169943
 20
173.151848
 11
-291.927062
 21
172.281423
  0
LINE
  8
TENKA
  6
PHANTOM2
 10
-291.927062
 20
172.281423
 11
-291.628427
 21
171.498140
  0
LINE
  8
TENKA
  6
PHANTOM2
 10
-291.628427
 20
171.498140
 11
-291.300273
 21
170.802535
  0
LINE
  8
TENKA
  6
PHANTOM2
 10
-291.300273
 20
170.802535
 11
-290.965648
 21
170.192754
  0
LINE
  8
TENKA
  6
PHANTOM2
 10
-290.965648
 20
170.192754
 11
-289.638257
 21
168.285894
  0
LINE
  8
TENKA
  6
PHANTOM2
 10
-289.638257
 20
168.285894
 11
-288.059234
 21
166.574427
  0
LINE
  8
TENKA
  6
PHANTOM2
 10
-288.059234
 20
166.574427
 11
-287.210617
 21
165.797685
  0
LINE
  8
TENKA
  6
PHANTOM2
 10
-287.210617
 20
165.797685
 11
-286.339497
 21
165.073567
  0
LINE
  8
TENKA
  6
PHANTOM2
 10
-286.339497
 20
165.073567
 11
-285.457180
 21
164.400400
  0
LINE
  8
TENKA
  6
PHANTOM2
 10
-285.457180
 20
164.400400
 11
-284.573796
 21
163.775400
  0
LINE
  8
TENKA
  6
PHANTOM2
 10
-284.573796
 20
163.775400
 11
-281.988076
 21
162.164653
  0
LINE
  8
TENKA
  6
PHANTOM2
 10
-281.988076
 20
162.164653
 11
-279.344507
 21
160.792501
  0
LINE
  8
TENKA
  6
PHANTOM2
 10
-279.344507
 20
160.792501
 11
-277.587790
 21
160.005949
  0
LINE
  8
TENKA
  6
PHANTOM2
 10
-277.587790
 20
160.005949
 11
-275.853141
 21
159.311561
  0
LINE
  8
TENKA
  6
PHANTOM2
 10
-275.853141
 20
159.311561
 11
-274.147736
 21
158.696519
  0
LINE
  8
TENKA
  6
PHANTOM2
 10
-274.147736
 20
158.696519
 11
-270.287554
 21
157.525886
  0
LINE
  8
TENKA
  6
PHANTOM2
 10
-270.287554
 20
157.525886
 11
-266.479197
 21
156.648445
  0
LINE
  8
TENKA
  6
PHANTOM2
 10
-266.479197
 20
156.648445
 11
-262.713125
 21
156.028352
  0
ARC
  8
TENKA
  6
PHANTOM2
 10
-956.614542
 20
3.171527
 40
969.215520
 50
9.973248
 51
16.780503
  0
LINE
  8
TENKA
  6
PHANTOM2
 10
27.501308
 20
176.225418
 11
-2.045105
 21
171.028352
  0
LINE
  8
TENKA
  6
PHANTOM2
 10
27.501308
 20
176.225418
 11
27.594693
 21
174.397125
  0
LINE
  8
TENKA
  6
PHANTOM2
 10
27.594693
 20
174.397125
 11
27.329243
 21
172.823786
  0
LINE
  8
TENKA
  6
PHANTOM2
 10
27.329243
 20
172.823786
 11
27.043412
 21
171.936073
  0
LINE
  8
TENKA
  6
PHANTOM2
 10
27.043412
 20
171.936073
 11
26.724464
 21
171.179771
  0
LINE
  8
TENKA
  6
PHANTOM2
 10
26.724464
 20
171.179771
 11
26.092913
 21
169.997401
  0
LINE
  8
TENKA
  6
PHANTOM2
 10
26.092913
 20
169.997401
 11
24.762739
 21
168.137006
  0
LINE
  8
TENKA
  6
PHANTOM2
 10
24.762739
 20
168.137006
 11
23.204389
 21
166.477185
  0
LINE
  8
TENKA
  6
PHANTOM2
 10
23.204389
 20
166.477185
 11
21.525082
 21
165.027362
  0
LINE
  8
TENKA
  6
PHANTOM2
 10
21.525082
 20
165.027362
 11
19.815566
 21
163.775400
  0
LINE
  8
TENKA
  6
PHANTOM2
 10
19.815566
 20
163.775400
 11
18.535419
 21
162.940479
  0
LINE
  8
TENKA
  6
PHANTOM2
 10
18.535419
 20
162.940479
 11
17.229427
 21
162.164367
  0
LINE
  8
TENKA
  6
PHANTOM2
 10
17.229427
 20
162.164367
 11
15.909440
 21
161.448477
  0
LINE
  8
TENKA
  6
PHANTOM2
 10
15.909440
 20
161.448477
 11
14.585679
 21
160.792242
  0
LINE
  8
TENKA
  6
PHANTOM2
 10
14.585679
 20
160.792242
 11
11.958393
 21
159.647875
  0
LINE
  8
TENKA
  6
PHANTOM2
 10
11.958393
 20
159.647875
 11
9.389506
 21
158.696519
  0
LINE
  8
TENKA
  6
PHANTOM2
 10
9.389506
 20
158.696519
 11
5.528722
 21
157.525760
  0
LINE
  8
TENKA
  6
PHANTOM2
 10
5.528722
 20
157.525760
 11
1.720673
 21
156.648324
  0
LINE
  8
TENKA
  6
PHANTOM2
 10
1.720673
 20
156.648324
 11
-2.045105
 21
156.028352
  0
ARC
  8
TENKA
  6
PHANTOM2
 10
691.856313
 20
3.171527
 40
969.215521
 50
163.219497
 51
170.026752
  0
LINE
  8
TENKA
  6
PHANTOM2
 10
-224.221062
 20
141.198791
 11
-223.346954
 21
141.331648
  0
LINE
  8
TENKA
  6
PHANTOM2
 10
-223.346954
 20
141.331648
 11
-222.501192
 21
141.379124
  0
LINE
  8
TENKA
  6
PHANTOM2
 10
-222.501192
 20
141.379124
 11
-221.711204
 21
141.339680
  0
LINE
  8
TENKA
  6
PHANTOM2
 10
-221.711204
 20
141.339680
 11
-221.002608
 21
141.214594
  0
LINE
  8
TENKA
  6
PHANTOM2
 10
-221.002608
 20
141.214594
 11
-220.398384
 21
141.007923
  0
LINE
  8
TENKA
  6
PHANTOM2
 10
-220.398384
 20
141.007923
 11
-219.918125
 21
140.726370
  0
LINE
  8
TENKA
  6
PHANTOM2
 10
-219.918125
 20
140.726370
 11
-219.577405
 21
140.379064
  0
LINE
  8
TENKA
  6
PHANTOM2
 10
-219.577405
 20
140.379064
 11
-219.387275
 21
139.977269
  0
ARC
  8
TENKA
  6
PHANTOM2
 10
-132.379115
 20
165.489876
 40
95.000000
 50
185.715849
 51
194.814809
  0
LINE
  8
TENKA
  6
PHANTOM2
 10
-40.537168
 20
141.198791
 11
-41.411276
 21
141.331648
  0
LINE
  8
TENKA
  6
PHANTOM2
 10
-41.411276
 20
141.331648
 11
-42.257038
 21
141.379124
  0
LINE
  8
TENKA
  6
PHANTOM2
 10
-42.257038
 20
141.379124
 11
-43.047026
 21
141.339680
  0
LINE
  8
TENKA
  6
PHANTOM2
 10
-43.047026
 20
141.339680
 11
-43.755622
 21
141.214594
  0
LINE
  8
TENKA
  6
PHANTOM2
 10
-43.755622
 20
141.214594
 11
-44.359846
 21
141.007923
  0
LINE
  8
TENKA
  6
PHANTOM2
 10
-44.359846
 20
141.007923
 11
-44.840106
 21
140.726370
  0
LINE
  8
TENKA
  6
PHANTOM2
 10
-44.840106
 20
140.726370
 11
-45.180825
 21
140.379064
  0
LINE
  8
TENKA
  6
PHANTOM2
 10
-45.180825
 20
140.379064
 11
-45.370955
 21
139.977269
  0
ARC
  8
TENKA
  6
PHANTOM2
 10
-132.379115
 20
165.489876
 40
95.000000
 50
345.185191
 51
354.284151
  0
LINE
  8
TENKA
  6
PHANTOM2
 10
-226.906781
 20
156.028352
 11
-262.713125
 21
156.028352
  0
LINE
  8
TENKA
  6
PHANTOM2
 10
-262.713125
 20
171.028352
 11
-227.038414
 21
171.028352
  0
LINE
  8
TENKA
  6
PHANTOM2
 10
-262.713125
 20
171.028352
 11
-262.713125
 21
156.028352
  0
LINE
  8
TENKA
  6
PHANTOM2
 10
-37.719816
 20
171.028352
 11
-2.045105
 21
171.028352
  0
LINE
  8
TENKA
  6
PHANTOM2
 10
-2.045105
 20
156.028352
 11
-37.851449
 21
156.028352
  0
LINE
  8
TENKA
  6
PHANTOM2
 10
-2.045105
 20
171.028352
 11
-2.045105
 21
156.028352
  0
ARC
  8
TENKA
  6
PHANTOM2
 10
-224.911811
 20
231.273844
 40
10.000000
 50
65.000000
 51
143.574744
  0
LINE
  8
TENKA
  6
PHANTOM2
 10
-232.958132
 20
237.211580
 11
-228.934972
 21
234.242712
  0
ARC
  8
TENKA
  6
PHANTOM2
 10
-132.379115
 20
162.989876
 40
125.000000
 50
143.574744
 51
156.425256
  0
LINE
  8
TENKA
  6
PHANTOM2
 10
-109.611063
 20
278.861434
 11
-107.494839
 21
254.672878
  0
ARC
  8
TENKA
  6
PHANTOM2
 10
-26.977117
 20
208.983558
 40
10.000000
 50
305.000000
 51
23.574744
  0
LINE
  8
TENKA
  6
PHANTOM2
 10
-246.946505
 20
212.983008
 11
-242.363809
 21
210.983283
  0
ARC
  8
TENKA
  6
PHANTOM2
 10
-237.781113
 20
208.983558
 40
10.000000
 50
156.425256
 51
235.000000
  0
LINE
  8
TENKA
  6
PHANTOM2
 10
-157.263391
 20
254.672878
 11
-155.147167
 21
278.861434
  0
LINE
  8
TENKA
  6
PHANTOM2
 10
-17.811726
 20
212.983008
 11
-22.394421
 21
210.983283
  0
ARC
  8
TENKA
  6
PHANTOM2
 10
-132.379115
 20
162.989876
 40
125.000000
 50
23.574744
 51
36.425256
  0
LINE
  8
TENKA
  6
PHANTOM2
 10
-107.494839
 20
254.672878
 11
-112.475812
 21
254.237099
  0
LINE
  8
TENKA
  6
PHANTOM2
 10
-65.421445
 20
230.381792
 11
-44.072602
 21
240.336921
  0
LINE
  8
TENKA
  6
PHANTOM2
 10
-220.685628
 20
240.336921
 11
-222.798720
 21
235.805382
  0
LINE
  8
TENKA
  6
PHANTOM2
 10
-199.336785
 20
230.381792
 11
-201.449877
 21
225.850254
  0
LINE
  8
TENKA
  6
PHANTOM2
 10
-220.685628
 20
240.336921
 11
-199.336785
 21
230.381792
  0
LINE
  8
TENKA
  6
PHANTOM2
 10
-44.072602
 20
240.336921
 11
-41.959511
 21
235.805382
  0
LINE
  8
TENKA
  6
PHANTOM2
 10
-31.800098
 20
237.211580
 11
-35.823259
 21
234.242712
  0
ARC
  8
TENKA
  6
PHANTOM2
 10
-39.846419
 20
231.273844
 40
10.000000
 50
36.425256
 51
115.000000
  0
LINE
  8
TENKA
  6
PHANTOM2
 10
-199.336785
 20
230.381792
 11
-195.812697
 21
226.834849
  0
ARC
  8
TENKA
  6
PHANTOM2
 10
-132.379115
 20
162.989876
 40
95.000000
 50
105.185191
 51
134.814809
  0
LINE
  8
TENKA
  6
PHANTOM2
 10
-157.263391
 20
254.672878
 11
-155.953693
 21
249.847457
  0
LINE
  8
TENKA
  6
PHANTOM2
 10
-157.263391
 20
254.672878
 11
-152.282418
 21
254.237099
  0
LINE
  8
TENKA
  6
PHANTOM2
 10
-65.421445
 20
230.381792
 11
-63.308353
 21
225.850254
  0
LINE
  8
TENKA
  6
PHANTOM2
 10
-21.241352
 20
200.792037
 11
-24.109235
 21
204.887797
  0
LINE
  8
TENKA
  6
PHANTOM2
 10
-40.537168
 20
187.280961
 11
-43.405051
 21
191.376722
  0
LINE
  8
TENKA
  6
PHANTOM2
 10
-21.241352
 20
200.792037
 11
-40.537168
 21
187.280961
  0
LINE
  8
TENKA
  6
PHANTOM2
 10
-107.494839
 20
254.672878
 11
-108.804537
 21
249.847457
  0
LINE
  8
TENKA
  6
PHANTOM2
 10
-65.421445
 20
230.381792
 11
-68.945533
 21
226.834849
  0
ARC
  8
TENKA
  6
PHANTOM2
 10
-132.379115
 20
162.989876
 40
95.000000
 50
45.185191
 51
74.814809
  0
LINE
  8
TENKA
  6
PHANTOM2
 10
-224.221062
 20
187.280961
 11
-221.353180
 21
191.376722
  0
LINE
  8
TENKA
  6
PHANTOM2
 10
-243.516878
 20
200.792037
 11
-240.648996
 21
204.887797
  0
LINE
  8
TENKA
  6
PHANTOM2
 10
-224.221062
 20
187.280961
 11
-243.516878
 21
200.792037
  0
LINE
  8
TENKA
  6
PHANTOM2
 10
-224.221062
 20
187.280961
 11
-219.387275
 21
186.002483
  0
ARC
  8
TENKA
  6
PHANTOM2
 10
-132.379115
 20
162.989876
 40
95.000000
 50
165.185191
 51
175.146083
  0
LINE
  8
TENKA
  6
PHANTOM2
 10
-40.537168
 20
187.280961
 11
-45.370955
 21
186.002483
  0
ARC
  8
TENKA
  6
PHANTOM2
 10
-132.379115
 20
162.989876
 40
95.000000
 50
4.853917
 51
14.814809
  0
LINE
  8
TENKA
  6
PHANTOM2
 10
-109.611063
 20
278.861434
 11
-114.592037
 21
278.425655
  0
ARC
  8
TENKA
  6
PHANTOM2
 10
-119.573010
 20
277.989876
 40
10.000000
 50
5.000000
 51
30.000000
  0
LINE
  8
TENKA
  6
PHANTOM2
 10
-155.147167
 20
278.861434
 11
-150.166194
 21
278.425655
  0
ARC
  8
TENKA
  6
PHANTOM2
 10
-145.185220
 20
277.989876
 40
10.000000
 50
150.000000
 51
175.000000
  0
LINE
  8
TENKA
  6
PHANTOM2
 10
-226.906781
 20
156.028352
 11
-225.965416
 21
156.053973
  0
LINE
  8
TENKA
  6
PHANTOM2
 10
-225.965416
 20
156.053973
 11
-225.057976
 21
155.988575
  0
LINE
  8
TENKA
  6
PHANTOM2
 10
-225.057976
 20
155.988575
 11
-224.217162
 21
155.834518
  0
LINE
  8
TENKA
  6
PHANTOM2
 10
-224.217162
 20
155.834518
 11
-223.473277
 21
155.597351
  0
LINE
  8
TENKA
  6
PHANTOM2
 10
-223.473277
 20
155.597351
 11
-222.853127
 21
155.285622
  0
LINE
  8
TENKA
  6
PHANTOM2
 10
-222.853127
 20
155.285622
 11
-222.379061
 21
154.910565
  0
LINE
  8
TENKA
  6
PHANTOM2
 10
-222.379061
 20
154.910565
 11
-222.068164
 21
154.485696
  0
LINE
  8
TENKA
  6
PHANTOM2
 10
-222.068164
 20
154.485696
 11
-221.931640
 21
154.026327
  0
LINE
  8
TENKA
  6
PHANTOM2
 10
-227.038414
 20
171.028352
 11
-222.056346
 21
170.605274
  0
ARC
  8
TENKA
  6
PHANTOM2
 10
-157.526221
 20
164.137783
 40
69.852880
 50
174.338908
 51
186.666672
  0
LINE
  8
TENKA
  6
PHANTOM2
 10
-37.719816
 20
171.028352
 11
-42.701884
 21
170.605274
  0
LINE
  8
TENKA
  6
PHANTOM2
 10
-37.851449
 20
156.028352
 11
-38.792814
 21
156.053973
  0
LINE
  8
TENKA
  6
PHANTOM2
 10
-38.792814
 20
156.053973
 11
-39.700254
 21
155.988575
  0
LINE
  8
TENKA
  6
PHANTOM2
 10
-39.700254
 20
155.988575
 11
-40.541068
 21
155.834518
  0
LINE
  8
TENKA
  6
PHANTOM2
 10
-40.541068
 20
155.834518
 11
-41.284954
 21
155.597351
  0
LINE
  8
TENKA
  6
PHANTOM2
 10
-41.284954
 20
155.597351
 11
-41.905104
 21
155.285622
  0
LINE
  8
TENKA
  6
PHANTOM2
 10
-41.905104
 20
155.285622
 11
-42.379169
 21
154.910565
  0
LINE
  8
TENKA
  6
PHANTOM2
 10
-42.379169
 20
154.910565
 11
-42.690066
 21
154.485696
  0
LINE
  8
TENKA
  6
PHANTOM2
 10
-42.690066
 20
154.485696
 11
-42.826590
 21
154.026327
  0
ARC
  8
TENKA
  6
PHANTOM2
 10
-107.230909
 20
164.137774
 40
69.851787
 50
353.333231
 51
5.661189
  0
ARC
  8
TENKA
  6
PHANTOM2
 10
-218.225303
 20
-17.127888
 40
5.119002
 50
1.318220
 51
91.260184
  0
ARC
  8
TENKA
  6
PHANTOM2
 10
-173.877266
 20
-52.540450
 40
39.233974
 50
179.225508
 51
191.254336
  0
LINE
  8
TENKA
  6
PHANTOM2
 10
-213.107656
 20
-52.010124
 11
-213.107656
 21
-17.010124
  0
LINE
  8
TENKA
  6
PHANTOM2
 10
-213.107656
 20
-17.010124
 11
-222.230193
 21
-17.010124
  0
ARC
  8
TENKA
  6
PHANTOM2
 10
-46.532927
 20
-17.127888
 40
5.119002
 50
88.739816
 51
178.681780
  0
LINE
  8
TENKA
  6
PHANTOM2
 10
-42.528037
 20
-17.010124
 11
-51.650574
 21
-17.010124
  0
LINE
  8
TENKA
  6
PHANTOM2
 10
-51.650574
 20
-17.010124
 11
-51.650574
 21
-52.010124
  0
ARC
  8
TENKA
  6
PHANTOM2
 10
-87.058267
 20
-52.891029
 40
35.418649
 50
348.094993
 51
1.425163
  0
ARC
  8
TENKA
  6
PHANTOM2
 10
-297.946945
 20
-27.983141
 40
16.349093
 50
103.169614
 51
125.234424
  0
LINE
  8
TENKA
  6
PHANTOM2
 10
-292.295158
 20
-17.010124
 11
-307.208744
 21
-17.010124
  0
LINE
  8
TENKA
  6
PHANTOM2
 10
-307.208744
 20
-17.010124
 11
-307.208744
 21
-62.010124
  0
ARC
  8
TENKA
  6
PHANTOM2
 10
33.609706
 20
-27.046480
 40
15.342409
 50
54.031673
 51
77.564289
  0
LINE
  8
TENKA
  6
PHANTOM2
 10
42.450514
 20
-62.010124
 11
42.450514
 21
-17.010124
  0
LINE
  8
TENKA
  6
PHANTOM2
 10
42.450514
 20
-17.010124
 11
27.536928
 21
-17.010124
  0
LINE
  8
TENKA
  6
PHANTOM2
 10
-292.295158
 20
-62.010124
 11
-292.295158
 21
-17.010124
  0
LINE
  8
TENKA
  6
PHANTOM2
 10
-292.295158
 20
-17.010124
 11
-287.465529
 21
-17.010124
  0
ARC
  8
TENKA
  6
PHANTOM2
 10
-287.378841
 20
-16.926390
 40
4.917030
 50
91.010185
 51
180.975760
  0
LINE
  8
TENKA
  6
PHANTOM2
 10
-287.465529
 20
-17.010124
 11
-287.465529
 21
-12.010124
  0
LINE
  8
TENKA
  6
PHANTOM2
 10
-227.154232
 20
-17.010124
 11
-287.465529
 21
-17.010124
  0
LINE
  8
TENKA
  6
PHANTOM2
 10
-287.465529
 20
-17.010124
 11
-287.465529
 21
-62.010124
  0
LINE
  8
TENKA
  6
PHANTOM2
 10
-222.230193
 20
-17.010124
 11
-222.230193
 21
-62.010124
  0
LINE
  8
TENKA
  6
PHANTOM2
 10
-227.154232
 20
-62.010124
 11
-227.154232
 21
-17.010124
  0
LINE
  8
TENKA
  6
PHANTOM2
 10
-227.154232
 20
-17.010124
 11
-222.230193
 21
-17.010124
  0
ARC
  8
TENKA
  6
PHANTOM2
 10
-227.192506
 20
-16.972432
 40
4.962455
 50
359.564808
 51
89.558095
  0
LINE
  8
TENKA
  6
PHANTOM2
 10
-227.154232
 20
-17.010124
 11
-227.154232
 21
-12.010124
  0
LINE
  8
TENKA
  6
PHANTOM2
 10
-37.603998
 20
-17.010124
 11
-37.603998
 21
-62.010124
  0
LINE
  8
TENKA
  6
PHANTOM2
 10
-42.528037
 20
-62.010124
 11
-42.528037
 21
-17.010124
  0
ARC
  8
TENKA
  6
PHANTOM2
 10
22.620611
 20
-16.926390
 40
4.917030
 50
359.024239
 51
88.989815
  0
ARC
  8
TENKA
  6
PHANTOM2
 10
-37.565724
 20
-16.972432
 40
4.962455
 50
90.441905
 51
180.435192
  0
LINE
  8
TENKA
  6
PHANTOM2
 10
-42.528037
 20
-17.010124
 11
-37.603998
 21
-17.010124
  0
LINE
  8
TENKA
  6
PHANTOM2
 10
-37.603998
 20
-12.010124
 11
-37.603998
 21
-17.010124
  0
LINE
  8
TENKA
  6
PHANTOM2
 10
22.707298
 20
-17.010124
 11
-37.603998
 21
-17.010124
  0
LINE
  8
TENKA
  6
PHANTOM2
 10
22.707298
 20
-12.010124
 11
22.707298
 21
-17.010124
  0
LINE
  8
TENKA
  6
PHANTOM2
 10
27.536928
 20
-17.010124
 11
27.536928
 21
-62.010124
  0
LINE
  8
TENKA
  6
PHANTOM2
 10
22.707298
 20
-17.010124
 11
27.536928
 21
-17.010124
  0
LINE
  8
TENKA
  6
PHANTOM2
 10
22.707298
 20
-62.010124
 11
22.707298
 21
-17.010124
  0
ARC
  8
TENKA
  6
PHANTOM2
 10
-75.724044
 20
51.566347
 40
42.643788
 50
89.645777
 51
190.151035
  0
LINE
  8
TENKA
  6
PHANTOM2
 10
-75.460406
 20
94.209320
 11
-75.033690
 21
94.607367
  0
LINE
  8
TENKA
  6
PHANTOM2
 10
-75.033690
 20
94.607367
 11
-74.564901
 21
95.050900
  0
LINE
  8
OBRYS
 10
45.120885
 20
-27.510124
 11
45.120885
 21
-46.510124
  0
LINE
  8
OBRYS
 10
-142.870522
 20
304.989876
 11
-121.887708
 21
304.989876
  0
LINE
  8
OBRYS
 10
42.620885
 20
-62.010124
 11
42.620885
 21
-60.670378
  0
LINE
  8
OBRYS
 10
-307.379115
 20
-62.010124
 11
-307.379115
 21
-60.670378
  0
LINE
  8
OBRYS
 10
-52.379115
 20
-62.010124
 11
-212.379115
 21
-62.010124
  0
LINE
  8
OBRYS
 10
-307.379115
 20
-60.670378
 11
-307.379115
 21
-52.010124
  0
LINE
  8
OBRYS
 10
42.620885
 20
-52.010124
 11
42.620885
 21
-60.670378
  0
LINE
  8
OBRYS
 10
-309.879115
 20
28.489876
 11
-309.879115
 21
37.989876
  0
LINE
  8
OBRYS
 10
-309.879115
 20
37.989876
 11
-309.879115
 21
47.489876
  0
LINE
  8
OBRYS
 10
-306.879115
 20
34.608700
 11
-306.879115
 21
50.489876
  0
LINE
  8
OBRYS
 10
-57.379115
 20
-57.010124
 11
-207.379115
 21
-57.010124
  0
LINE
  8
OBRYS
 10
42.620885
 20
2.989876
 11
42.620885
 21
-11.800070
  0
LINE
  8
OBRYS
 10
-307.379115
 20
-11.800070
 11
-307.379115
 21
2.989876
  0
ARC
  8
OBRYS
 10
-207.379115
 20
-62.010124
 40
5.000000
 50
90.000000
 51
180.000000
  0
ARC
  8
OBRYS
 10
-57.379115
 20
-62.010124
 40
5.000000
 50
0.000000
 51
90.000000
  0
ARC
  8
OBRYS
 10
-957.379115
 20
2.989876
 40
1000.000000
 50
0.000000
 51
5.768108
  0
ARC
  8
OBRYS
 10
692.620885
 20
2.989876
 40
1000.000000
 50
174.231892
 51
180.000000
  0
LINE
  8
OBRYS
 10
42.620885
 20
-62.010124
 11
42.450514
 21
-62.010124
  0
LINE
  8
OBRYS
 10
42.620885
 20
-15.716029
 11
42.620885
 21
-62.010124
  0
LINE
  8
OBRYS
 10
-307.208744
 20
-62.010124
 11
-307.379115
 21
-62.010124
  0
LINE
  8
OBRYS
 10
-307.379115
 20
-62.010124
 11
-307.379115
 21
-15.716029
  0
LINE
  8
OBRYS
 10
-77.129115
 20
304.489876
 11
-57.629116
 21
304.489876
  0
ARC
  8
OBRYS
 10
-207.343416
 20
-61.350501
 40
5.144246
 50
90.397616
 51
167.048394
  0
ARC
  8
OBRYS
 10
-57.414814
 20
-61.350501
 40
5.144246
 50
12.951606
 51
89.602384
  0
ARC
  8
OBRYS
 10
692.620885
 20
2.989876
 40
1000.000000
 50
173.037937
 51
174.231892
  0
ARC
  8
OBRYS
 10
-957.379115
 20
2.989876
 40
1000.000000
 50
5.768108
 51
6.962063
  0
LINE
  8
OBRYS
 10
-307.379115
 20
-14.629227
 11
-307.379115
 21
-11.800070
  0
LINE
  8
OBRYS
 10
42.620885
 20
-11.800070
 11
42.620885
 21
-14.629227
  0
LINE
  8
OBRYS
 10
-130.909061
 20
37.998521
 11
-130.900286
 21
38.009851
  0
LINE
  8
OBRYS
 10
-130.900286
 20
38.009851
 11
-130.869634
 21
38.049419
  0
ARC
  8
OBRYS
 10
-148.075774
 20
44.195316
 40
18.270832
 50
340.343673
 51
356.291737
  0
LINE
  8
OBRYS
 10
-79.879115
 20
296.489876
 11
-54.879115
 21
296.489876
  0
ARC
  8
OBRYS
 10
-30.978658
 20
88.200800
 40
5.997852
 50
143.596617
 51
219.330527
  0
LINE
  8
OBRYS
 10
-129.831217
 20
43.016928
 11
-129.843196
 21
43.013628
  0
ARC
  8
OBRYS
 10
-108.607817
 20
60.550687
 40
18.839442
 50
241.142639
 51
252.278957
  0
ARC
  8
OBRYS
 10
-131.590285
 20
37.857510
 40
5.809191
 50
14.244487
 51
63.108397
  0
LINE
  8
OBRYS
 10
-22.879115
 20
299.989876
 11
-11.879115
 21
299.989876
  0
LINE
  8
OBRYS
 10
-252.879115
 20
299.989876
 11
-241.879115
 21
299.989876
  0
LINE
  8
OBRYS
 10
-137.879115
 20
299.989876
 11
-126.879115
 21
299.989876
  0
ARC
  8
OBRYS
 10
692.620885
 20
2.989876
 40
1000.000000
 50
170.024006
 51
173.037937
  0
ARC
  8
OBRYS
 10
-957.379115
 20
2.989876
 40
1000.000000
 50
6.962063
 51
9.975994
  0
LINE
  8
OBRYS
 10
-237.379115
 20
294.989876
 11
-27.379115
 21
294.989876
  0
LINE
  8
OBRYS
 10
2.120885
 20
294.989876
 11
2.620885
 21
294.489876
  0
LINE
  8
OBRYS
 10
-27.379115
 20
294.989876
 11
2.120885
 21
294.989876
  0
LINE
  8
OBRYS
 10
-266.879115
 20
294.989876
 11
-237.379115
 21
294.989876
  0
LINE
  8
OBRYS
 10
-267.379115
 20
294.489876
 11
-266.879115
 21
294.989876
  0
LINE
  8
OBRYS
 10
-27.379115
 20
294.489876
 11
-237.379115
 21
294.489876
  0
LINE
  8
OBRYS
 10
2.620885
 20
294.489876
 11
2.620885
 21
282.989876
  0
LINE
  8
OBRYS
 10
2.620885
 20
294.489876
 11
-27.379115
 21
294.489876
  0
LINE
  8
OBRYS
 10
-237.379115
 20
294.489876
 11
-267.379115
 21
294.489876
  0
LINE
  8
OBRYS
 10
-267.379115
 20
294.489876
 11
-267.379115
 21
282.989876
  0
LINE
  8
OBRYS
 10
-28.670354
 20
282.989876
 11
2.620771
 21
282.989876
  0
ARC
  8
OBRYS
 10
-957.379115
 20
2.989876
 40
1000.000000
 50
9.975994
 51
16.260205
  0
LINE
  8
OBRYS
 10
-267.379001
 20
282.989876
 11
-236.087876
 21
282.989876
  0
ARC
  8
OBRYS
 10
692.620885
 20
2.989876
 40
1000.000000
 50
163.739795
 51
170.024006
  0
LINE
  8
OBRYS
 10
-28.670354
 20
282.989876
 11
-110.912756
 21
282.989876
  0
LINE
  8
OBRYS
 10
-153.845474
 20
282.989876
 11
-236.087876
 21
282.989876
  0
LINE
  8
OBRYS
 10
-119.573010
 20
282.989876
 11
-110.912756
 21
282.989876
  0
LINE
  8
OBRYS
 10
-153.845474
 20
282.989876
 11
-145.185220
 21
282.989876
  0
LINE
  8
OBRYS
 10
-227.154232
 20
-12.010124
 11
-218.337883
 21
-12.010124
  0
LINE
  8
OBRYS
 10
-212.379115
 20
-62.010124
 11
-222.230193
 21
-62.010124
  0
LINE
  8
OBRYS
 10
-212.379115
 20
-60.670378
 11
-212.371848
 21
-60.382311
  0
LINE
  8
OBRYS
 10
-212.371848
 20
-60.382311
 11
-212.356791
 21
-60.197531
  0
LINE
  8
OBRYS
 10
-212.379115
 20
-62.010124
 11
-212.379115
 21
-60.670378
  0
LINE
  8
OBRYS
 10
-46.420347
 20
-12.010124
 11
-37.603998
 21
-12.010124
  0
LINE
  8
OBRYS
 10
-42.528037
 20
-62.010124
 11
-52.379115
 21
-62.010124
  0
LINE
  8
OBRYS
 10
-52.401439
 20
-60.197531
 11
-52.382593
 21
-60.466045
  0
LINE
  8
OBRYS
 10
-52.382593
 20
-60.466045
 11
-52.379115
 21
-60.670378
  0
LINE
  8
OBRYS
 10
-52.379115
 20
-62.010124
 11
-52.379115
 21
-60.670378
  0
ARC
  8
OBRYS
 10
-300.863426
 20
-18.098618
 40
6.088494
 50
89.995880
 51
97.630039
  0
LINE
  8
OBRYS
 10
-307.379115
 20
-15.716029
 11
-307.379115
 21
-14.629227
  0
ARC
  8
OBRYS
 10
-302.263678
 20
-15.700831
 40
5.115460
 50
180.170221
 51
194.829779
  0
LINE
  8
OBRYS
 10
-300.862988
 20
-12.010124
 11
-287.465529
 21
-12.010124
  0
LINE
  8
OBRYS
 10
-292.295158
 20
-62.010124
 11
-307.208744
 21
-62.010124
  0
LINE
  8
OBRYS
 10
42.620885
 20
-14.629227
 11
42.620885
 21
-15.716029
  0
ARC
  8
OBRYS
 10
36.104933
 20
-18.102557
 40
6.092433
 50
82.372432
 51
90.001649
  0
LINE
  8
OBRYS
 10
22.707298
 20
-12.010124
 11
36.104758
 21
-12.010124
  0
ARC
  8
OBRYS
 10
37.389570
 20
-15.685575
 40
5.231403
 50
345.333533
 51
359.666467
  0
LINE
  8
OBRYS
 10
42.450514
 20
-62.010124
 11
27.536928
 21
-62.010124
  0
LINE
  8
OBRYS
 10
-287.465529
 20
-62.010124
 11
-292.295158
 21
-62.010124
  0
LINE
  8
OBRYS
 10
-287.465529
 20
-12.010124
 11
-227.154232
 21
-12.010124
  0
LINE
  8
OBRYS
 10
-227.154232
 20
-62.010124
 11
-287.465529
 21
-62.010124
  0
LINE
  8
OBRYS
 10
-222.230193
 20
-62.010124
 11
-227.154232
 21
-62.010124
  0
LINE
  8
OBRYS
 10
22.707298
 20
-62.010124
 11
-37.603998
 21
-62.010124
  0
LINE
  8
OBRYS
 10
-37.603998
 20
-62.010124
 11
-42.528037
 21
-62.010124
  0
LINE
  8
OBRYS
 10
-37.603998
 20
-12.010124
 11
22.707298
 21
-12.010124
  0
LINE
  8
OBRYS
 10
27.536928
 20
-62.010124
 11
22.707298
 21
-62.010124
  0
CIRCLE
  8
OBRYS
 10
-132.379115
 20
62.989876
 40
7.000000
  0
CIRCLE
  8
OBRYS
 10
-132.379115
 20
262.989876
 40
7.000000
  0
CIRCLE
  8
OBRYS
 10
-45.776575
 20
112.989876
 40
7.000000
  0
CIRCLE
  8
OBRYS
 10
-218.981655
 20
212.989876
 40
7.000000
  0
CIRCLE
  8
OBRYS
 10
-45.776575
 20
212.989876
 40
7.000000
  0
CIRCLE
  8
OBRYS
 10
-218.981655
 20
112.989876
 40
7.000000
  0
ARC
  8
OBRYS
 10
-237.781113
 20
208.983558
 40
5.000000
 50
156.425256
 51
235.000000
  0
ARC
  8
OBRYS
 10
-224.221062
 20
138.698791
 40
5.000000
 50
305.000000
 51
14.814809
  0
LINE
  8
OBRYS
 10
-119.573010
 20
282.989876
 11
-145.185220
 21
282.989876
  0
LINE
  8
OBRYS
 10
-43.405051
 20
191.376722
 11
-24.109235
 21
204.887797
  0
LINE
  8
OBRYS
 10
-221.353180
 20
134.603031
 11
-240.648996
 21
121.091955
  0
ARC
  8
OBRYS
 10
-224.221062
 20
187.280961
 40
5.000000
 50
345.185191
 51
55.000000
  0
ARC
  8
OBRYS
 10
-39.846419
 20
231.273844
 40
5.000000
 50
36.425256
 51
115.000000
  0
LINE
  8
OBRYS
 10
-201.449877
 20
225.850254
 11
-222.798720
 21
235.805382
  0
ARC
  8
OBRYS
 10
-224.911811
 20
231.273844
 40
5.000000
 50
65.000000
 51
143.574744
  0
ARC
  8
OBRYS
 10
-132.379115
 20
162.989876
 40
120.000000
 50
143.574744
 51
156.425256
  0
ARC
  8
OBRYS
 10
-132.379115
 20
162.989876
 40
90.000000
 50
225.185191
 51
254.814809
  0
LINE
  8
OBRYS
 10
-240.648996
 20
204.887797
 11
-221.353180
 21
191.376722
  0
ARC
  8
OBRYS
 10
-119.509813
 20
48.712227
 40
5.000000
 50
276.425256
 51
281.337007
  0
ARC
  8
OBRYS
 10
-65.421445
 20
95.597960
 40
5.000000
 50
65.000000
 51
134.814809
  0
LINE
  8
OBRYS
 10
-63.308353
 20
100.129499
 11
-41.959511
 21
90.174370
  0
ARC
  8
OBRYS
 10
-39.846419
 20
94.705909
 40
5.000000
 50
245.000000
 51
323.574744
  0
ARC
  8
OBRYS
 10
-26.977117
 20
208.983558
 40
5.000000
 50
305.000000
 51
23.574744
  0
ARC
  8
OBRYS
 10
-132.379115
 20
162.989876
 40
120.000000
 50
23.574744
 51
36.425256
  0
ARC
  8
OBRYS
 10
-132.379115
 20
162.989876
 40
120.000000
 50
203.574744
 51
216.425256
  0
LINE
  8
OBRYS
 10
-41.959511
 20
235.805382
 11
-63.308353
 21
225.850254
  0
ARC
  8
OBRYS
 10
-65.421445
 20
230.381792
 40
5.000000
 50
225.185191
 51
295.000000
  0
ARC
  8
OBRYS
 10
-132.379115
 20
162.989876
 40
90.000000
 50
45.185191
 51
74.814809
  0
CIRCLE
  8
OBRYS
 10
-132.379115
 20
262.989876
 40
8.000000
  0
CIRCLE
  8
OBRYS
 10
-45.776575
 20
212.989876
 40
8.000000
  0
CIRCLE
  8
OBRYS
 10
-45.776575
 20
112.989876
 40
8.000000
  0
CIRCLE
  8
OBRYS
 10
-132.379115
 20
62.989876
 40
8.000000
  0
CIRCLE
  8
OBRYS
 10
-218.981655
 20
112.989876
 40
8.000000
  0
CIRCLE
  8
OBRYS
 10
-218.981655
 20
212.989876
 40
8.000000
  0
ARC
  8
OBRYS
 10
-132.379115
 20
162.989876
 40
90.000000
 50
311.717729
 51
314.814809
  0
ARC
  8
OBRYS
 10
-132.379115
 20
162.989876
 40
120.000000
 50
323.574744
 51
336.425256
  0
ARC
  8
OBRYS
 10
-26.977117
 20
116.996195
 40
5.000000
 50
336.425256
 51
55.000000
  0
LINE
  8
OBRYS
 10
-24.109235
 20
121.091955
 11
-43.405051
 21
134.603031
  0
ARC
  8
OBRYS
 10
-40.537168
 20
138.698791
 40
5.000000
 50
165.185191
 51
235.000000
  0
ARC
  8
OBRYS
 10
-132.379115
 20
162.989876
 40
90.000000
 50
345.185191
 51
14.814809
  0
ARC
  8
OBRYS
 10
-40.537168
 20
187.280961
 40
5.000000
 50
125.000000
 51
194.814809
  0
ARC
  8
OBRYS
 10
-107.494839
 20
254.672878
 40
5.000000
 50
185.000000
 51
254.814809
  0
LINE
  8
OBRYS
 10
-112.475812
 20
254.237099
 11
-114.592037
 21
278.425655
  0
ARC
  8
OBRYS
 10
-119.573010
 20
277.989876
 40
5.000000
 50
5.000000
 51
90.000000
  0
ARC
  8
OBRYS
 10
-145.185220
 20
277.989876
 40
5.000000
 50
90.000000
 51
175.000000
  0
LINE
  8
OBRYS
 10
-150.166194
 20
278.425655
 11
-152.282418
 21
254.237099
  0
ARC
  8
OBRYS
 10
-157.263391
 20
254.672878
 40
5.000000
 50
285.185191
 51
355.000000
  0
ARC
  8
OBRYS
 10
-132.379115
 20
162.989876
 40
90.000000
 50
105.185191
 51
134.814809
  0
ARC
  8
OBRYS
 10
-199.336785
 20
230.381792
 40
5.000000
 50
245.000000
 51
314.814809
  0
ARC
  8
OBRYS
 10
-132.379115
 20
162.989876
 40
90.000000
 50
165.185191
 51
194.814809
  0
ARC
  8
OBRYS
 10
-237.781113
 20
116.996195
 40
5.000000
 50
125.000000
 51
203.574744
  0
ARC
  8
OBRYS
 10
-224.911811
 20
94.705909
 40
5.000000
 50
216.425256
 51
295.000000
  0
LINE
  8
OBRYS
 10
-222.798720
 20
90.174370
 11
-201.449877
 21
100.129499
  0
ARC
  8
OBRYS
 10
-199.336785
 20
95.597960
 40
5.000000
 50
45.185191
 51
115.000000
  0
ARC
  8
OBRYS
 10
-157.263391
 20
71.306875
 40
5.000000
 50
5.000000
 51
74.814809
  0
LINE
  8
OBRYS
 10
-152.282418
 20
71.742653
 11
-150.229391
 21
48.276448
  0
ARC
  8
OBRYS
 10
-145.248418
 20
48.712227
 40
5.000000
 50
185.000000
 51
263.574744
  0
ARC
  8
OBRYS
 10
-132.379115
 20
162.989876
 40
120.000000
 50
263.574744
 51
276.425256
  0
LINE
  8
OBRYS
 10
-118.526915
 20
43.809788
 11
-118.356314
 21
43.847102
  0
LINE
  8
OBRYS
 10
-118.356314
 20
43.847102
 11
-117.701261
 21
44.050774
  0
ARC
  8
OBRYS
 10
-75.724044
 20
51.566347
 40
43.500000
 50
88.473061
 51
190.271437
  0
ARC
  8
OBRYS
 10
-74.485092
 20
98.051508
 40
3.001669
 50
268.476413
 51
311.717836
  0
LINE
  8
OBRYS
 10
-73.476340
 20
94.942370
 11
-74.403253
 21
94.394950
  0
LINE
  8
OBRYS
 10
-74.403253
 20
94.394950
 11
-75.460406
 21
94.209320
  0
LINE
  8
OBRYS
 10
-72.487593
 20
95.810969
 11
-73.006498
 21
95.351925
  0
LINE
  8
OBRYS
 10
-73.006498
 20
95.351925
 11
-73.476340
 21
94.942370
  0
CIRCLE
  8
OBRYS
 10
-132.379115
 20
162.989876
 40
70.000000
  0
CIRCLE
  8
OBRYS
 10
-132.379115
 20
162.989876
 40
80.000000
  0
CIRCLE
  8
OBRYS
 10
-132.379115
 20
162.989876
 40
40.000000
  0
CIRCLE
  8
OBRYS
 10
-132.379115
 20
162.989876
 40
39.272060
  0
CIRCLE
  8
OBRYS
 10
-132.379115
 20
162.989876
 40
8.750000
  0
LINE
  8
OBRYS
 10
-141.379115
 20
196.989876
 11
-123.379115
 21
196.989876
  0
LINE
  8
OBRYS
 10
-141.379115
 20
196.989876
 11
-141.379115
 21
191.608052
  0
LINE
  8
OBRYS
 10
-123.379115
 20
196.989876
 11
-123.379115
 21
191.608052
  0
CIRCLE
  8
OBRYS
 10
-132.379115
 20
162.989876
 40
10.500000
  0
CIRCLE
  8
OBRYS
 10
-132.379115
 20
162.989876
 40
30.000000
  0
CIRCLE
  8
OBRYS
 10
-132.379115
 20
162.989876
 40
14.200000
  0
CIRCLE
  8
OBRYS
 10
-132.379115
 20
162.989876
 40
29.000000
  0
ARC
  8
OBRYS
 10
44.120885
 20
-46.510124
 40
1.000000
 50
270.000000
 51
360.000000
  0
ARC
  8
OBRYS
 10
44.120885
 20
-27.510124
 40
1.000000
 50
0.000000
 51
90.000000
  0
LINE
  8
OBRYS
 10
44.120885
 20
-26.510124
 11
42.620885
 21
-26.510124
  0
LINE
  8
OBRYS
 10
42.620885
 20
-47.510124
 11
44.120885
 21
-47.510124
  0
ARC
  8
OBRYS
 10
-132.379115
 20
320.989876
 40
27.000000
 50
0.000000
 51
234.279518
  0
ARC
  8
OBRYS
 10
-132.379115
 20
320.989876
 40
27.000000
 50
305.706274
 51
360.000000
  0
CIRCLE
  8
OBRYS
 10
-132.379115
 20
320.989876
 40
15.000000
  0
ARC
  8
OBRYS
 10
-115.631386
 20
297.502097
 40
1.826301
 50
122.549059
 51
181.376948
  0
ARC
  8
OBRYS
 10
-149.156077
 20
297.489921
 40
1.857109
 50
358.937858
 51
57.406079
  0
LINE
  8
OBRYS
 10
-147.292816
 20
297.461144
 11
-147.379115
 21
294.989876
  0
LINE
  8
OBRYS
 10
-117.379115
 20
294.989876
 11
-117.465414
 21
297.461144
  0
ARC
  8
OBRYS
 10
-308.879115
 20
47.489876
 40
1.000000
 50
90.000000
 51
180.000000
  0
ARC
  8
OBRYS
 10
-308.879115
 20
28.489876
 40
1.000000
 50
180.000000
 51
270.000000
  0
LINE
  8
OBRYS
 10
-308.879115
 20
27.489876
 11
-307.078945
 21
27.489876
  0
LINE
  8
OBRYS
 10
-306.879115
 20
48.489876
 11
-308.879115
 21
48.489876
  0
LINE
  8
OBRYS
 10
-306.250353
 20
50.489876
 11
-306.879115
 21
50.489876
  0
LINE
  8
OBRYS
 10
-77.879115
 20
303.739876
 11
-77.879115
 21
296.489876
  0
LINE
  8
OBRYS
 10
-56.879115
 20
296.489876
 11
-56.879115
 21
303.739876
  0
ARC
  8
OBRYS
 10
-57.629115
 20
303.739876
 40
0.750000
 50
0.000000
 51
90.000000
  0
ARC
  8
OBRYS
 10
-77.129115
 20
303.739876
 40
0.750000
 50
90.000000
 51
180.000000
  0
LINE
  8
OBRYS
 10
-79.879115
 20
296.489876
 11
-79.879115
 21
294.989876
  0
LINE
  8
OBRYS
 10
-54.879115
 20
294.989876
 11
-54.879115
 21
296.489876
  0
ARC
  8
OBRYS
 10
-11.879115
 20
298.989876
 40
1.000000
 50
0.000000
 51
90.000000
  0
ARC
  8
OBRYS
 10
-22.879115
 20
298.989876
 40
1.000000
 50
90.000000
 51
180.000000
  0
LINE
  8
OBRYS
 10
-23.879115
 20
298.989876
 11
-23.879115
 21
294.989876
  0
LINE
  8
OBRYS
 10
-10.879115
 20
294.989876
 11
-10.879115
 21
298.989876
  0
ARC
  8
OBRYS
 10
-241.879115
 20
298.989876
 40
1.000000
 50
0.000000
 51
90.000000
  0
ARC
  8
OBRYS
 10
-252.879115
 20
298.989876
 40
1.000000
 50
90.000000
 51
180.000000
  0
LINE
  8
OBRYS
 10
-253.879115
 20
298.989876
 11
-253.879115
 21
294.989876
  0
LINE
  8
OBRYS
 10
-240.879115
 20
294.989876
 11
-240.879115
 21
298.989876
  0
ARC
  8
OBRYS
 10
-126.879115
 20
298.989876
 40
1.000000
 50
0.000000
 51
90.000000
  0
ARC
  8
OBRYS
 10
-137.879115
 20
298.989876
 40
1.000000
 50
90.000000
 51
180.000000
  0
LINE
  8
OBRYS
 10
-138.879115
 20
298.989876
 11
-138.879115
 21
294.989876
  0
LINE
  8
0
 62
     2
 10
-125.879115
 20
294.989876
 11
-125.879115
 21
298.989876
  0
ENDSEC
  0
EOF

