  0
SECTION
  2
HEADER
  9
$ACADVER
  1
AC1009
  9
$INSBASE
 10
0.0
 20
0.0
 30
0.0
  9
$EXTMIN
 10
92.3
 20
-1342.9
 30
0.0
  9
$EXTMAX
 10
1230.4
 20
-505.5
 30
0.0
  9
$LIMMIN
 10
0.0
 20
0.0
  9
$LIMMAX
 10
3000.0
 20
2000.0
  9
$ORTHOMODE
 70
     1
  9
$REGENMODE
 70
     1
  9
$FILLMODE
 70
     1
  9
$QTEXTMODE
 70
     0
  9
$MIRRTEXT
 70
     1
  9
$DRAGMODE
 70
     2
  9
$LTSCALE
 40
1.0
  9
$OSMODE
 70
   161
  9
$ATTMODE
 70
     1
  9
$TEXTSIZE
 40
2.5
  9
$TRACEWID
 40
1.0
  9
$TEXTSTYLE
  7
STANDARD
  9
$CLAYER
  8
0
  9
$CELTYPE
  6
BYLAYER
  9
$CECOLOR
 62
   256
  9
$DIMSCALE
 40
1.0
  9
$DIMASZ
 40
2.5
  9
$DIMEXO
 40
0.625
  9
$DIMDLI
 40
3.75
  9
$DIMRND
 40
0.0
  9
$DIMDLE
 40
0.0
  9
$DIMEXE
 40
1.25
  9
$DIMTP
 40
0.0
  9
$DIMTM
 40
0.0
  9
$DIMTXT
 40
2.5
  9
$DIMCEN
 40
2.5
  9
$DIMTSZ
 40
0.0
  9
$DIMTOL
 70
     0
  9
$DIMLIM
 70
     0
  9
$DIMTIH
 70
     0
  9
$DIMTOH
 70
     0
  9
$DIMSE1
 70
     0
  9
$DIMSE2
 70
     0
  9
$DIMTAD
 70
     1
  9
$DIMZIN
 70
     8
  9
$DIMBLK
  1

  9
$DIMASO
 70
     1
  9
$DIMSHO
 70
     1
  9
$DIMPOST
  1

  9
$DIMAPOST
  1

  9
$DIMALT
 70
     0
  9
$DIMALTD
 70
     4
  9
$DIMALTF
 40
0.039
  9
$DIMLFAC
 40
1.0
  9
$DIMTOFL
 70
     0
  9
$DIMTVP
 40
0.0
  9
$DIMTIX
 70
     0
  9
$DIMSOXD
 70
     0
  9
$DIMSAH
 70
     0
  9
$DIMBLK1
  1

  9
$DIMBLK2
  1

  9
$DIMSTYLE
  2
STANDARD
  9
$DIMCLRD
 70
     0
  9
$DIMCLRE
 70
     0
  9
$DIMCLRT
 70
     0
  9
$DIMTFAC
 40
1.0
  9
$DIMGAP
 40
0.09
  9
$LUNITS
 70
     2
  9
$LUPREC
 70
     4
  9
$AXISMODE
 70
     0
  9
$AXISUNIT
 10
0.0
 20
0.0
  9
$SKETCHINC
 40
1.0
  9
$FILLETRAD
 40
2.5
  9
$AUNITS
 70
     0
  9
$AUPREC
 70
     0
  9
$MENU
  1
.
  9
$ELEVATION
 40
0.0
  9
$PELEVATION
 40
0.0
  9
$THICKNESS
 40
0.0
  9
$LIMCHECK
 70
     0
  9
$BLIPMODE
 70
     0
  9
$CHAMFERA
 40
10.0
  9
$CHAMFERB
 40
10.0
  9
$SKPOLY
 70
     0
  9
$TDCREATE
 40
2450959.665412998
  9
$TDUPDATE
 40
0.000000000
  9
$TDINDWG
 40
0.8215412153
  9
$TDUSRTIMER
 40
0.0000000000
  9
$USRTIMER
 70
     1
  9
$ANGBASE
 50
0.0
  9
$ANGDIR
 70
     0
  9
$PDMODE
 70
     0
  9
$PDSIZE
 40
0.0
  9
$PLINEWID
 40
0.0
  9
$COORDS
 70
     1
  9
$SPLFRAME
 70
     0
  9
$SPLINETYPE
 70
     6
  9
$SPLINESEGS
 70
     8
  9
$ATTDIA
 70
     0
  9
$ATTREQ
 70
     1
  9
$HANDLING
 70
     0
  9
$HANDSEED
  5
87
  9
$SURFTAB1
 70
     6
  9
$SURFTAB2
 70
     6
  9
$SURFTYPE
 70
     6
  9
$SURFU
 70
     6
  9
$SURFV
 70
     6
  9
$UCSNAME
  2

  9
$UCSORG
 10
0.0
 20
0.0
 30
0.0
  9
$UCSXDIR
 10
1.0
 20
0.0
 30
0.0
  9
$UCSYDIR
 10
0.0
 20
1.0
 30
0.0
  9
$PUCSNAME
  2

  9
$PUCSORG
 10
0.0
 20
0.0
 30
0.0
  9
$PUCSXDIR
 10
1.0
 20
0.0
 30
0.0
  9
$PUCSYDIR
 10
0.0
 20
1.0
 30
0.0
  9
$USERI1
 70
     0
  9
$USERI2
 70
     0
  9
$USERI3
 70
     0
  9
$USERI4
 70
     0
  9
$USERI5
 70
     0
  9
$USERR1
 40
0.0
  9
$USERR2
 40
0.0
  9
$USERR3
 40
0.0
  9
$USERR4
 40
0.0
  9
$USERR5
 40
0.0
  9
$WORLDVIEW
 70
     1
  9
$SHADEDGE
 70
     3
  9
$SHADEDIF
 70
    70
  9
$TILEMODE
 70
     1
  9
$MAXACTVP
 70
    16
  9
$PINSBASE
 10
0.0
 20
0.0
 30
0.0
  9
$PLIMCHECK
 70
     0
  9
$PEXTMIN
 10
1.000000E+20
 20
1.000000E+20
 30
1.000000E+20
  9
$PEXTMAX
 10
-1.000000E+20
 20
-1.000000E+20
 30
-1.000000E+20
  9
$PLIMMIN
 10
0.0
 20
0.0
  9
$PLIMMAX
 10
12.0
 20
9.0
  9
$UNITMODE
 70
     0
  9
$VISRETAIN
 70
     0
  9
$PLINEGEN
 70
     1
  9
$PSLTSCALE
 70
     0
  9
$TREEDEPTH
 70
  3020
  9
$DWGCODEPAGE
  3
iso8859-1
  0
ENDSEC
  0
SECTION
  2
TABLES
  0
TABLE
  2
VPORT
 70
     1
  0
VPORT
  2
*ACTIVE
 70
     0
 10
0.0
 20
0.0
 11
1.0
 21
1.0
 12
1500.0
 22
1000.0
 13
0.0
 23
0.0
 14
1.0
 24
1.0
 15
0.0
 25
0.0
 16
0.0
 26
0.0
 36
1.0
 17
0.0
 27
0.0
 37
0.0
 40
2040.0
 41
0.688564
 42
50.0
 43
0.0
 44
0.0
 50
0.0
 51
0.0
 71
     0
 72
   100
 73
     1
 74
     1
 75
     0
 76
     0
 77
     0
 78
     0
  0
ENDTAB
  0
TABLE
  2
LTYPE
 70
     3
  0
LTYPE
  2
CONTINUOUS
 70
    64
  3
Solid line
 72
    65
 73
     0
 40
0.0
  0
LTYPE
  2
ACAD_ISO10W100
 70
    64
  3
ISO Strichpunktlinie __ . __ . __ . __ . __ . _
 72
    65
 73
     4
 40
18.5
 49
12.0
 49
-3.0
 49
0.5
 49
-3.0
  0
LTYPE
  2
ACAD_ISO02W100
 70
    64
  3
ISO Strichlinie __ __ __ __ __ __ __ __ __ __ _
 72
    65
 73
     2
 40
15.0
 49
12.0
 49
-3.0
  0
ENDTAB
  0
TABLE
  2
LAYER
 70
     7
  0
LAYER
  2
0
 70
    64
 62
     7
  6
CONTINUOUS
  0
LAYER
  2
L03
 70
     0
 62
     7
  6
CONTINUOUS
  0
LAYER
  2
L11
 70
     0
 62
     1
  6
ACAD_ISO10W100
  0
LAYER
  2
A01
 70
    64
 62
     3
  6
CONTINUOUS
  0
LAYER
  2
L31
 70
    64
 62
     4
  6
CONTINUOUS
  0
LAYER
  2
L05
 70
     0
 62
     1
  6
ACAD_ISO02W100
  0
LAYER
  2
L21
 70
     0
 62
     2
  6
CONTINUOUS
  0
LAYER
  2
EBENE01
 70
     0
 62
     7
  6
CONTINUOUS
  0
LAYER
  2
TEXT
 70
     0
 62
     7
  6
CONTINUOUS
  0
LAYER
  2
2
 70
     0
 62
     7
  6
CONTINUOUS
  0
LAYER
  2
A2
 70
     0
 62
     7
  6
CONTINUOUS
  0
LAYER
  2
5
 70
     0
 62
     7
  6
CONTINUOUS
  0
ENDTAB
  0
TABLE
  2
STYLE
 70
     1
  0
STYLE
  2
STANDARD
 70
    64
 40
0.0
 41
1.0
 50
0.0
 71
     0
 42
2.5
  3
txt
  4

  0
ENDTAB
  0
TABLE
  2
VIEW
 70
     0
  0
ENDTAB
  0
TABLE
  2
UCS
 70
     0
  0
ENDTAB
  0
TABLE
  2
APPID
 70
     1
  0
APPID
  2
ACAD
 70
     0
  0
ENDTAB
  0
TABLE
  2
DIMSTYLE
 70
     1
  0
DIMSTYLE
  2
STANDARD
 70
     0
  3

  4

  5

  6

  7

 40
1.0
 41
2.5
 42
0.625
 43
3.75
 44
1.25
 45
0.0
 46
0.0
 47
0.0
 48
0.0
 71
     0
 72
     0
 73
     0
 74
     0
 75
     0
 76
     0
 77
     1
 78
     8
140
2.5
141
2.5
142
0.0
143
0.039
144
1.0
145
0.0
146
1.0
147
0.09
170
     0
171
     4
172
     0
173
     0
174
     0
175
     0
176
     0
177
     0
178
     0
  0
ENDTAB
  0
ENDSEC
  0
SECTION
  2
BLOCKS
  0
BLOCK
  8
0
  2
$MODEL_SPACE
 70
     0
 10
-42.994
 20
-179.842
 30
0.0
  3
$MODEL_SPACE
  1

  0
ENDBLK
  5
20
  8
0
  0
BLOCK
 67
     1
  8
0
  2
$PAPER_SPACE
 70
     0
 10
-42.994
 20
-179.842
 30
0.0
  3
$PAPER_SPACE
  1

  0
ENDBLK
  5
1C
 67
     1
  0
ENDSEC
  0
SECTION
  2
ENTITIES
  0
LINE
  8
L21
 39
1.125
  5
5A
 10
64.971
 20
170.752
 30
0.0
 11
65.828
 21
171.610
 31
0.0
  0
LINE
  8
L21
 39
1.125
  5
5B
 10
64.971
 20
167.217
 30
0.0
 11
69.364
 21
171.610
 31
0.0
  0
LINE
  8
L21
 39
1.125
  5
5C
 10
66.899
 20
165.610
 30
0.0
 11
70.971
 21
169.681
 31
0.0
  0
LINE
  8
L21
 39
1.125
  5
5D
 10
70.435
 20
165.610
 30
0.0
 11
70.971
 21
166.146
 31
0.0
  0
LINE
  8
L21
 39
1.125
  5
5E
 10
75.790
 20
159.184
 30
0.0
 11
69.364
 21
165.610
 31
0.0
  0
LINE
  8
L21
 39
1.125
  5
5F
 10
79.147
 20
159.363
 30
0.0
 11
70.971
 21
167.539
 31
0.0
  0
LINE
  8
L21
 39
1.125
  5
60
 10
81.683
 20
160.361
 30
0.0
 11
70.971
 21
171.074
 31
0.0
  0
LINE
  8
L21
 39
1.125
  5
61
 10
70.435
 20
171.610
 30
0.0
 11
68.722
 21
173.323
 31
0.0
  0
LINE
  8
L21
 39
1.125
  5
62
 10
83.688
 20
161.892
 30
0.0
 11
70.253
 21
175.327
 31
0.0
  0
LINE
  8
L21
 39
1.125
  5
63
 10
85.219
 20
163.897
 30
0.0
 11
72.258
 21
176.858
 31
0.0
  0
LINE
  8
L21
 39
1.125
  5
64
 10
86.218
 20
166.434
 30
0.0
 11
74.794
 21
177.857
 31
0.0
  0
LINE
  8
L21
 39
1.125
  5
65
 10
86.397
 20
169.790
 30
0.0
 11
78.151
 21
178.036
 31
0.0
  0
POLYLINE
  8
L03
 39
1.850
  5
66
 66
     1
 10
135.971
 20
-1191.390
 30
0.0
 70
     1
  0
VERTEX
  8
L03
 39
1.850
  5
67
 10
70.971
 20
165.610
 30
0.0
  0
VERTEX
  8
L03
 39
1.850
  5
68
 10
64.971
 20
165.610
 30
0.0
  0
VERTEX
  8
L03
 39
1.850
  5
69
 10
64.971
 20
171.610
 30
0.0
  0
VERTEX
  8
L03
 39
1.850
  5
6A
 10
70.971
 20
171.610
 30
0.0
  0
SEQEND
  8
L03
 39
1.850
  5
6B
  0
ARC
  8
L03
 39
1.850
  5
6C
 10
76.971
 20
168.610
 30
0.0
 40
9.500
 50
-161.59152
 51
161.59152
  0
LINE
  8
L11
 39
0.925
  5
6D
 10
92.971
 20
168.610
 30
0.0
 11
63.471
 21
168.610
 31
0.0
  0
LINE
  8
L11
 39
0.925
  5
6E
 10
76.971
 20
182.110
 30
0.0
 11
76.971
 21
155.110
 31
0.0
  0
LINE
  8
L31
 39
1.125
  5
6F
 10
64.971
 20
115.610
 30
0.0
 11
64.971
 21
75.610
 31
0.0
  0
LINE
  8
L31
 39
1.125
  5
70
 10
64.971
 20
163.610
 30
0.0
 11
64.971
 21
122.610
 31
0.0
  0
LINE
  8
L31
 39
1.125
  5
71
 10
86.471
 20
115.610
 30
0.0
 11
86.471
 21
75.610
 31
0.0
  0
LINE
  8
L31
 39
1.125
  5
72
 10
86.471
 20
166.610
 30
0.0
 11
86.471
 21
122.610
 31
0.0
  0
TEXT
  8
L31
 39
1.125
  5
73
 10
12.221
 20
31.777
 30
0.0
 40
14.000
  1
DIN 332-DR M6
 41
0.75
 72
     1
 11
76.971
 21
27.110
 31
0.0
 73
     1
  0
TEXT
  8
L31
 39
1.125
  5
74
 10
20.096
 20
3.777
 30
0.0
 40
14.000
  1
DIN 6885 Bl.1
 41
0.75
 72
     1
 11
76.971
 21
-0.890
 31
0.0
 73
     1
  0
SOLID
  8
L31
 39
1.125
  5
75
 10
86.471
 20
79.110
 30
0.0
 11
86.471
 21
79.110
 31
0.0
 12
100.471
 22
82.610
 32
0.0
 13
100.471
 23
75.610
 33
0.0
  0
SOLID
  8
L31
 39
1.125
  5
76
 10
64.971
 20
79.110
 30
0.0
 11
64.971
 21
79.110
 31
0.0
 12
50.971
 22
75.610
 32
0.0
 13
50.971
 23
82.610
 33
0.0
  0
LINE
  8
L31
 39
1.125
  5
77
 10
107.471
 20
79.110
 30
0.0
 11
8.971
 21
79.110
 31
0.0
  0
TEXT
  8
L31
 39
1.125
  5
78
 10
15.971
 20
87.510
 30
0.0
 40
14.000
  1
21.5
 41
0.75
 72
     1
 11
29.971
 21
87.510
 31
0.0
  0
LINE
  8
L31
 39
1.125
  5
79
 10
70.971
 20
163.610
 30
0.0
 11
70.971
 21
115.610
 31
0.0
  0
SOLID
  8
L31
 39
1.125
  5
7A
 10
70.971
 20
119.110
 30
0.0
 11
70.971
 21
119.110
 31
0.0
 12
84.971
 22
122.610
 32
0.0
 13
84.971
 23
115.610
 33
0.0
  0
LINE
  8
L31
 39
1.125
  5
7B
 10
64.971
 20
163.610
 30
0.0
 11
64.971
 21
115.610
 31
0.0
  0
SOLID
  8
L31
 39
1.125
  5
7C
 10
64.971
 20
119.110
 30
0.0
 11
64.971
 21
119.110
 31
0.0
 12
50.971
 22
115.610
 32
0.0
 13
50.971
 23
122.610
 33
0.0
  0
LINE
  8
L31
 39
1.125
  5
7D
 10
91.971
 20
119.110
 30
0.0
 11
29.971
 21
119.110
 31
0.0
  0
TEXT
  8
L31
 39
1.125
  5
7E
 10
36.971
 20
127.510
 30
0.0
 40
14.000
  1
6
 41
0.75
 72
     1
 11
40.471
 21
127.510
 31
0.0
  0
LINE
  8
L31
 39
1.125
  5
7F
 10
62.971
 20
165.610
 30
0.0
 11
19.471
 21
165.610
 31
0.0
  0
SOLID
  8
L31
 39
1.125
  5
80
 10
22.971
 20
165.610
 30
0.0
 11
22.971
 21
165.610
 31
0.0
 12
26.471
 22
151.610
 32
0.0
 13
19.471
 23
151.610
 33
0.0
  0
LINE
  8
L31
 39
1.125
  5
81
 10
62.971
 20
171.610
 30
0.0
 11
19.471
 21
171.610
 31
0.0
  0
SOLID
  8
L31
 39
1.125
  5
82
 10
22.971
 20
171.610
 30
0.0
 11
22.971
 21
171.610
 31
0.0
 12
19.471
 22
185.610
 32
0.0
 13
26.471
 23
185.610
 33
0.0
  0
LINE
  8
L31
 39
1.125
  5
83
 10
22.971
 20
144.610
 30
0.0
 11
22.971
 21
192.610
 31
0.0
  0
TEXT
  8
L31
 39
1.125
  5
84
 10
14.571
 20
165.110
 30
0.0
 40
14.000
  1
6
 50
90.0
 41
0.75
 72
     1
 11
14.571
 21
168.610
 31
0.0
  0
LINE
  8
L11
 39
0.925
  5
2
 10
525.014
 20
238.610
 30
0.0
 11
525.014
 21
258.110
 31
0.0
  0
LINE
  8
L11
 39
0.925
  5
3
 10
519.514
 20
168.610
 30
0.0
 11
601.514
 21
168.610
 31
0.0
  0
LINE
  8
L03
 62
     8
 39
1.000
  5
4
 10
577.035
 20
238.610
 30
0.0
 11
577.035
 21
98.610
 31
0.0
  0
LINE
  8
L03
 39
1.850
  5
5
 10
521.014
 20
250.110
 30
0.0
 11
521.014
 21
246.610
 31
0.0
  0
LINE
  8
L03
 39
1.850
  5
6
 10
529.014
 20
250.110
 30
0.0
 11
521.014
 21
250.110
 31
0.0
  0
LINE
  8
L03
 39
1.850
  5
7
 10
529.014
 20
246.610
 30
0.0
 11
529.014
 21
250.110
 31
0.0
  0
LINE
  8
L03
 39
1.850
  5
8
 10
521.014
 20
246.610
 30
0.0
 11
529.014
 21
246.610
 31
0.0
  0
LINE
  8
L03
 39
1.850
  5
9
 10
464.724
 20
243.610
 30
0.0
 11
519.514
 21
243.610
 31
0.0
  0
LINE
  8
L03
 39
1.850
  5
A
 10
387.014
 20
246.110
 30
0.0
 11
390.392
 21
246.110
 31
0.0
  0
LINE
  8
L11
 39
0.925
  5
B
 10
367.514
 20
168.610
 30
0.0
 11
387.014
 21
168.610
 31
0.0
  0
LINE
  8
L03
 39
1.850
  5
C
 10
387.014
 20
168.610
 30
0.0
 11
387.014
 21
246.110
 31
0.0
  0
LINE
  8
L03
 39
1.850
  5
D
 10
519.514
 20
243.610
 30
0.0
 11
519.514
 21
168.610
 31
0.0
  0
LINE
  8
L03
 39
1.850
  5
E
 10
519.514
 20
168.610
 30
0.0
 11
519.514
 21
93.610
 31
0.0
  0
LINE
  8
L03
 39
1.850
  5
F
 10
519.514
 20
93.610
 30
0.0
 11
397.014
 21
93.610
 31
0.0
  0
LINE
  8
L03
 39
1.850
  5
10
 10
397.014
 20
93.610
 30
0.0
 11
397.014
 21
91.110
 31
0.0
  0
LINE
  8
L03
 39
1.850
  5
11
 10
397.014
 20
91.110
 30
0.0
 11
387.014
 21
91.110
 31
0.0
  0
LINE
  8
L03
 39
1.850
  5
12
 10
387.014
 20
91.110
 30
0.0
 11
387.014
 21
168.610
 31
0.0
  0
LINE
  8
L03
 39
1.850
  5
13
 10
397.014
 20
122.610
 30
0.0
 11
519.514
 21
122.610
 31
0.0
  0
LINE
  8
L03
 39
1.850
  5
14
 10
397.014
 20
131.610
 30
0.0
 11
519.514
 21
131.610
 31
0.0
  0
LINE
  8
L03
 39
1.850
  5
15
 10
397.014
 20
140.610
 30
0.0
 11
519.514
 21
140.610
 31
0.0
  0
LINE
  8
L03
 39
1.850
  5
16
 10
397.014
 20
149.610
 30
0.0
 11
519.514
 21
149.610
 31
0.0
  0
LINE
  8
L03
 39
1.850
  5
17
 10
397.014
 20
214.610
 30
0.0
 11
519.514
 21
214.610
 31
0.0
  0
LINE
  8
L03
 39
1.850
  5
18
 10
397.014
 20
205.610
 30
0.0
 11
519.514
 21
205.610
 31
0.0
  0
LINE
  8
L03
 39
1.850
  5
19
 10
397.014
 20
196.610
 30
0.0
 11
519.514
 21
196.610
 31
0.0
  0
LINE
  8
L03
 39
1.850
  5
1A
 10
397.014
 20
187.610
 30
0.0
 11
519.514
 21
187.610
 31
0.0
  0
LINE
  8
L11
 39
0.925
  5
1B
 10
387.014
 20
168.610
 30
0.0
 11
519.514
 21
168.610
 31
0.0
  0
LINE
  8
L03
 39
1.850
  5
1D
 10
360.514
 20
178.110
 30
0.0
 11
360.514
 21
233.610
 31
0.0
  0
LINE
  8
L03
 39
1.850
  5
1E
 10
360.514
 20
233.610
 30
0.0
 11
364.014
 21
233.610
 31
0.0
  0
LINE
  8
L03
 39
1.850
  5
1F
 10
364.014
 20
233.610
 30
0.0
 11
364.014
 21
268.610
 31
0.0
  0
LINE
  8
L03
 39
1.850
  5
21
 10
364.014
 20
268.610
 30
0.0
 11
374.014
 21
268.610
 31
0.0
  0
LINE
  8
L03
 39
1.850
  5
22
 10
374.014
 20
268.610
 30
0.0
 11
374.014
 21
246.110
 31
0.0
  0
LINE
  8
L03
 39
1.850
  5
23
 10
374.014
 20
246.110
 30
0.0
 11
387.014
 21
246.110
 31
0.0
  0
LINE
  8
L03
 39
1.850
  5
24
 10
387.014
 20
246.110
 30
0.0
 11
387.014
 21
91.110
 31
0.0
  0
LINE
  8
L03
 39
1.850
  5
25
 10
387.014
 20
91.110
 30
0.0
 11
374.014
 21
91.110
 31
0.0
  0
LINE
  8
L03
 39
1.850
  5
26
 10
374.014
 20
91.110
 30
0.0
 11
374.014
 21
68.610
 31
0.0
  0
LINE
  8
L03
 39
1.850
  5
27
 10
374.014
 20
68.610
 30
0.0
 11
364.014
 21
68.610
 31
0.0
  0
LINE
  8
L03
 39
1.850
  5
28
 10
364.014
 20
68.610
 30
0.0
 11
364.014
 21
103.610
 31
0.0
  0
LINE
  8
L03
 39
1.850
  5
29
 10
364.014
 20
103.610
 30
0.0
 11
360.514
 21
103.610
 31
0.0
  0
LINE
  8
L03
 39
1.850
  5
2A
 10
360.514
 20
103.610
 30
0.0
 11
360.514
 21
159.110
 31
0.0
  0
LINE
  8
L03
 39
1.850
  5
2B
 10
364.014
 20
233.610
 30
0.0
 11
364.014
 21
224.210
 31
0.0
  0
LINE
  8
L03
 39
1.850
  5
2C
 10
364.014
 20
103.610
 30
0.0
 11
364.014
 21
113.010
 31
0.0
  0
LINE
  8
L03
 39
1.850
  5
2D
 10
367.514
 20
186.610
 30
0.0
 11
367.514
 21
150.610
 31
0.0
  0
LINE
  8
L03
 39
1.850
  5
2E
 10
367.514
 20
186.610
 30
0.0
 11
369.172
 21
186.610
 31
0.0
  0
LINE
  8
L03
 39
1.850
  5
85
 10
367.514
 20
150.610
 30
0.0
 11
369.172
 21
150.610
 31
0.0
  0
LINE
  8
L03
 39
1.850
  5
86
 10
374.014
 20
268.610
 30
0.0
 11
374.014
 21
68.610
 31
0.0
  0
LINE
  8
L03
 62
     8
 39
1.000
  5
2F
 10
360.514
 20
226.560
 30
0.0
 11
364.014
 21
224.210
 31
0.0
  0
LINE
  8
L03
 62
     8
 39
1.000
  5
88
 10
364.014
 20
224.210
 30
0.0
 11
367.514
 21
207.760
 31
0.0
  0
LINE
  8
L03
 62
     8
 39
1.000
  5
89
 10
367.514
 20
207.760
 30
0.0
 11
369.172
 21
186.610
 31
0.0
  0
LINE
  8
L03
 62
     8
 39
1.000
  5
8A
 10
369.172
 20
186.610
 30
0.0
 11
369.854
 21
168.610
 31
0.0
  0
LINE
  8
L03
 62
     8
 39
1.000
  5
8B
 10
369.854
 20
168.610
 30
0.0
 11
369.172
 21
150.610
 31
0.0
  0
LINE
  8
L03
 62
     8
 39
1.000
  5
8C
 10
369.172
 20
150.610
 30
0.0
 11
367.514
 21
129.460
 31
0.0
  0
LINE
  8
L03
 62
     8
 39
1.000
  5
8D
 10
367.514
 20
129.460
 30
0.0
 11
364.014
 21
113.010
 31
0.0
  0
LINE
  8
L03
 62
     8
 39
1.000
  5
8E
 10
364.014
 20
113.010
 30
0.0
 11
360.514
 21
110.660
 31
0.0
  0
LINE
  8
L11
 39
0.925
  5
8F
 10
360.014
 20
251.110
 30
0.0
 11
378.014
 21
251.110
 31
0.0
  0
LINE
  8
L11
 39
0.925
  5
90
 10
360.014
 20
86.110
 30
0.0
 11
378.014
 21
86.110
 31
0.0
  0
LINE
  8
L03
 39
1.850
  5
91
 10
367.514
 20
158.610
 30
0.0
 11
364.014
 21
158.610
 31
0.0
  0
LINE
  8
L03
 39
1.850
  5
92
 10
364.014
 20
158.610
 30
0.0
 11
364.014
 21
159.110
 31
0.0
  0
LINE
  8
L03
 39
1.850
  5
93
 10
364.014
 20
159.110
 30
0.0
 11
324.014
 21
159.110
 31
0.0
  0
LINE
  8
L03
 39
1.850
  5
94
 10
324.014
 20
159.110
 30
0.0
 11
324.014
 21
168.610
 31
0.0
  0
LINE
  8
L03
 39
1.850
  5
95
 10
324.014
 20
168.610
 30
0.0
 11
324.014
 21
178.110
 31
0.0
  0
LINE
  8
L03
 39
1.850
  5
96
 10
324.014
 20
178.110
 30
0.0
 11
364.014
 21
178.110
 31
0.0
  0
LINE
  8
L03
 39
1.850
  5
97
 10
364.014
 20
178.110
 30
0.0
 11
364.014
 21
178.610
 31
0.0
  0
LINE
  8
L03
 39
1.850
  5
98
 10
364.014
 20
178.610
 30
0.0
 11
367.514
 21
178.610
 31
0.0
  0
ARC
  8
L03
 39
1.850
  5
99
 10
331.014
 20
168.610
 30
0.0
 40
3.000
 50
180.0
 51
270.0
  0
ARC
  8
L03
 39
1.850
  5
9A
 10
331.014
 20
168.610
 30
0.0
 40
3.000
 50
90.0
 51
180.0
  0
LINE
  8
L03
 39
1.850
  5
9B
 10
331.014
 20
171.610
 30
0.0
 11
357.014
 21
171.610
 31
0.0
  0
ARC
  8
L03
 39
1.850
  5
9C
 10
357.014
 20
168.610
 30
0.0
 40
3.000
 50
0.0
 51
90.0
  0
ARC
  8
L03
 39
1.850
  5
9D
 10
357.014
 20
168.610
 30
0.0
 40
3.000
 50
270.0
 51
0.0
  0
LINE
  8
L03
 39
1.850
  5
9E
 10
357.014
 20
165.610
 30
0.0
 11
331.014
 21
165.610
 31
0.0
  0
LINE
  8
L03
 39
1.850
  5
9F
 10
364.014
 20
159.110
 30
0.0
 11
364.014
 21
178.110
 31
0.0
  0
LINE
  8
L11
 39
0.925
  5
A0
 10
316.014
 20
168.610
 30
0.0
 11
367.514
 21
168.610
 31
0.0
  0
LINE
  8
L03
 39
1.850
  5
A1
 10
519.514
 20
168.610
 30
0.0
 11
519.514
 21
246.610
 31
0.0
  0
LINE
  8
L03
 39
1.850
  5
A2
 10
519.514
 20
246.610
 30
0.0
 11
577.035
 21
246.610
 31
0.0
  0
LINE
  8
L03
 39
1.850
  5
A3
 10
577.035
 20
246.610
 30
0.0
 11
597.514
 21
230.610
 31
0.0
  0
LINE
  8
L03
 39
1.850
  5
A4
 10
597.514
 20
230.610
 30
0.0
 11
597.514
 21
106.610
 31
0.0
  0
LINE
  8
L03
 39
1.850
  5
A5
 10
597.514
 20
106.610
 30
0.0
 11
577.035
 21
90.610
 31
0.0
  0
LINE
  8
L03
 39
1.850
  5
A6
 10
577.035
 20
90.610
 30
0.0
 11
519.514
 21
90.610
 31
0.0
  0
LINE
  8
L03
 39
1.850
  5
A7
 10
519.514
 20
90.610
 30
0.0
 11
519.514
 21
168.610
 31
0.0
  0
LINE
  8
L03
 39
1.850
  5
A8
 10
390.059
 20
236.583
 30
0.0
 11
390.514
 21
249.610
 31
0.0
  0
LINE
  8
L03
 39
1.850
  5
A9
 10
390.514
 20
249.610
 30
0.0
 11
464.514
 21
249.610
 31
0.0
  0
LINE
  8
L03
 39
1.850
  5
AA
 10
464.514
 20
249.610
 30
0.0
 11
464.969
 21
236.583
 31
0.0
  0
LINE
  8
L03
 39
1.850
  5
AB
 10
390.014
 20
249.610
 30
0.0
 11
390.014
 21
279.610
 31
0.0
  0
LINE
  8
L03
 39
1.850
  5
AC
 10
390.014
 20
279.610
 30
0.0
 11
390.171
 21
288.610
 31
0.0
  0
LINE
  8
L03
 39
1.850
  5
AD
 10
390.171
 20
288.610
 30
0.0
 11
464.857
 21
288.610
 31
0.0
  0
LINE
  8
L03
 39
1.850
  5
AE
 10
464.857
 20
288.610
 30
0.0
 11
465.014
 21
279.610
 31
0.0
  0
LINE
  8
L03
 39
1.850
  5
AF
 10
465.014
 20
279.610
 30
0.0
 11
465.014
 21
249.610
 31
0.0
  0
LINE
  8
L03
 39
1.850
  5
B0
 10
465.014
 20
249.610
 30
0.0
 11
390.014
 21
249.610
 31
0.0
  0
LINE
  8
L03
 39
1.850
  5
B1
 10
390.014
 20
279.610
 30
0.0
 11
465.014
 21
279.610
 31
0.0
  0
LINE
  8
L11
 39
0.925
  5
B2
 10
427.514
 20
292.610
 30
0.0
 11
427.514
 21
245.610
 31
0.0
  0
CIRCLE
  8
L03
 39
1.850
  5
B3
 10
409.514
 20
265.110
 30
0.0
 40
10.000
  0
LINE
  8
L03
 39
1.850
  5
B4
 10
405.254
 20
269.370
 30
0.0
 11
413.774
 21
260.850
 31
0.0
  0
LINE
  8
L11
 39
0.925
  5
B5
 10
395.514
 20
265.110
 30
0.0
 11
423.514
 21
265.110
 31
0.0
  0
LINE
  8
L11
 39
0.925
  5
B6
 10
409.514
 20
251.110
 30
0.0
 11
409.514
 21
279.110
 31
0.0
  0
CIRCLE
  8
L03
 39
1.850
  5
B7
 10
441.514
 20
265.110
 30
0.0
 40
10.000
  0
LINE
  8
L03
 39
1.850
  5
B8
 10
437.254
 20
269.370
 30
0.0
 11
445.774
 21
260.850
 31
0.0
  0
LINE
  8
L11
 39
0.925
  5
B9
 10
427.514
 20
265.110
 30
0.0
 11
455.514
 21
265.110
 31
0.0
  0
LINE
  8
L11
 39
0.925
  5
BA
 10
441.514
 20
251.110
 30
0.0
 11
441.514
 21
279.110
 31
0.0
  0
LINE
  8
L31
 39
1.125
  5
BB
 10
427.514
 20
394.510
 30
0.0
 11
427.514
 21
412.110
 31
0.0
  0
LINE
  8
L31
 39
1.125
  5
BC
 10
427.514
 20
372.110
 30
0.0
 11
427.514
 21
373.510
 31
0.0
  0
LINE
  8
L31
 39
1.125
  5
BD
 10
427.514
 20
299.110
 30
0.0
 11
427.514
 21
365.110
 31
0.0
  0
LINE
  8
L31
 39
1.125
  5
BE
 10
409.514
 20
372.110
 30
0.0
 11
409.514
 21
412.110
 31
0.0
  0
LINE
  8
L31
 39
1.125
  5
BF
 10
409.514
 20
273.110
 30
0.0
 11
409.514
 21
365.110
 31
0.0
  0
LINE
  8
L31
 39
1.125
  5
C0
 10
461.814
 20
368.805
 30
0.0
 11
484.583
 21
485.110
 31
0.0
  0
LINE
  8
L31
 39
1.125
  5
C1
 10
441.514
 20
265.110
 30
0.0
 11
461.091
 21
365.110
 31
0.0
  0
LINE
  8
L31
 39
1.125
  5
C2
 10
442.539
 20
372.110
 30
0.0
 11
477.415
 21
485.110
 31
0.0
  0
LINE
  8
L31
 39
1.125
  5
C3
 10
409.514
 20
265.110
 30
0.0
 11
440.378
 21
365.110
 31
0.0
  0
LINE
  8
L31
 39
1.125
  5
C4
 10
461.814
 20
368.805
 30
0.0
 11
484.583
 21
485.110
 31
0.0
  0
LINE
  8
L31
 39
1.125
  5
C5
 10
441.514
 20
265.110
 30
0.0
 11
461.091
 21
365.110
 31
0.0
  0
LINE
  8
L31
 39
1.125
  5
C6
 10
390.014
 20
372.110
 30
0.0
 11
390.014
 21
405.110
 31
0.0
  0
LINE
  8
L31
 39
1.125
  5
C7
 10
390.014
 20
281.610
 30
0.0
 11
390.014
 21
365.110
 31
0.0
  0
LINE
  8
L31
 39
1.125
  5
C8
 10
390.014
 20
412.110
 30
0.0
 11
390.014
 21
452.110
 31
0.0
  0
LINE
  8
L31
 39
1.125
  5
C9
 10
324.014
 20
201.610
 30
0.0
 11
324.014
 21
305.110
 31
0.0
  0
LINE
  8
L31
 39
1.125
  5
CA
 10
324.014
 20
180.110
 30
0.0
 11
324.014
 21
194.610
 31
0.0
  0
LINE
  8
L31
 39
1.125
  5
CB
 10
324.014
 20
201.610
 30
0.0
 11
324.014
 21
305.110
 31
0.0
  0
LINE
  8
L31
 39
1.125
  5
CC
 10
324.014
 20
180.110
 30
0.0
 11
324.014
 21
194.610
 31
0.0
  0
LINE
  8
L31
 39
1.125
  5
CD
 10
364.014
 20
145.110
 30
0.0
 11
364.014
 21
113.110
 31
0.0
  0
LINE
  8
L31
 39
1.125
  5
CE
 10
364.014
 20
156.610
 30
0.0
 11
364.014
 21
152.110
 31
0.0
  0
LINE
  8
L31
 39
1.125
  5
CF
 10
364.014
 20
312.110
 30
0.0
 11
364.014
 21
352.110
 31
0.0
  0
LINE
  8
L31
 39
1.125
  5
D0
 10
364.014
 20
270.610
 30
0.0
 11
364.014
 21
305.110
 31
0.0
  0
LINE
  8
L31
 39
1.125
  5
D1
 10
324.014
 20
334.510
 30
0.0
 11
324.014
 21
352.110
 31
0.0
  0
LINE
  8
L31
 39
1.125
  5
D2
 10
324.014
 20
312.110
 30
0.0
 11
324.014
 21
313.510
 31
0.0
  0
LINE
  8
L31
 39
1.125
  5
D3
 10
374.014
 20
312.110
 30
0.0
 11
374.014
 21
392.110
 31
0.0
  0
LINE
  8
L31
 39
1.125
  5
D4
 10
374.014
 20
270.610
 30
0.0
 11
374.014
 21
305.110
 31
0.0
  0
LINE
  8
L31
 39
1.125
  5
D5
 10
364.014
 20
312.110
 30
0.0
 11
364.014
 21
392.110
 31
0.0
  0
LINE
  8
L31
 39
1.125
  5
D6
 10
364.014
 20
270.610
 30
0.0
 11
364.014
 21
305.110
 31
0.0
  0
LINE
  8
L31
 39
1.125
  5
D7
 10
324.014
 20
334.510
 30
0.0
 11
324.014
 21
492.110
 31
0.0
  0
LINE
  8
L31
 39
1.125
  5
D8
 10
324.014
 20
312.110
 30
0.0
 11
324.014
 21
313.510
 31
0.0
  0
LINE
  8
L31
 39
1.125
  5
D9
 10
485.953
 20
492.110
 30
0.0
 11
497.014
 21
548.610
 31
0.0
  0
LINE
  8
L31
 39
1.125
  5
DA
 10
484.564
 20
508.272
 30
0.0
 11
497.014
 21
548.610
 31
0.0
  0
LINE
  8
L31
 39
1.125
  5
DB
 10
479.576
 20
492.110
 30
0.0
 11
480.008
 21
493.510
 31
0.0
  0
LINE
  8
L31
 39
1.125
  5
DC
 10
485.953
 20
492.110
 30
0.0
 11
497.014
 21
548.610
 31
0.0
  0
CIRCLE
  8
L31
 39
1.125
  5
DD
 10
441.514
 20
265.110
 30
0.0
 40
1.400
  0
CIRCLE
  8
L31
 39
1.125
  5
DE
 10
441.514
 20
265.110
 30
0.0
 40
0.467
  0
TEXT
  8
L31
 39
1.125
  5
DF
 10
498.359
 20
555.480
 30
0.0
 40
14.000
  1
M16x1.5/M25x1.5
 41
0.75
 72
    -1
 11
498.359
 21
555.480
 31
0.0
  0
CIRCLE
  8
L31
 39
1.125
  5
E0
 10
409.514
 20
265.110
 30
0.0
 40
1.400
  0
CIRCLE
  8
L31
 39
1.125
  5
E1
 10
409.514
 20
265.110
 30
0.0
 40
0.467
  0
CIRCLE
  8
L31
 39
1.125
  5
E2
 10
441.514
 20
265.110
 30
0.0
 40
1.400
  0
CIRCLE
  8
L31
 39
1.125
  5
E3
 10
441.514
 20
265.110
 30
0.0
 40
0.467
  0
LINE
  8
L31
 39
1.125
  5
E4
 10
531.014
 20
250.110
 30
0.0
 11
641.014
 21
250.110
 31
0.0
  0
SOLID
  8
L31
 39
1.125
  5
E5
 10
637.514
 20
250.110
 30
0.0
 11
637.514
 21
250.110
 31
0.0
 12
641.014
 22
236.110
 32
0.0
 13
634.014
 23
236.110
 33
0.0
  0
LINE
  8
L31
 39
1.125
  5
E6
 10
637.514
 20
250.110
 30
0.0
 11
637.514
 21
140.900
 31
0.0
  0
TEXT
  8
L31
 39
1.125
  5
E7
 10
629.114
 20
151.110
 30
0.0
 40
14.000
  1
%%c163
 50
90.0
 41
0.75
 72
     1
 11
629.114
 21
168.610
 31
0.0
  0
SOLID
  8
L31
 39
1.125
  5
E8
 10
324.014
 20
488.610
 30
0.0
 11
324.014
 21
488.610
 31
0.0
 12
338.014
 22
492.110
 32
0.0
 13
338.014
 23
485.110
 33
0.0
  0
LINE
  8
L31
 39
1.125
  5
E9
 10
597.514
 20
232.610
 30
0.0
 11
597.514
 21
492.110
 31
0.0
  0
SOLID
  8
L31
 39
1.125
  5
EA
 10
597.514
 20
488.610
 30
0.0
 11
597.514
 21
488.610
 31
0.0
 12
583.514
 22
485.110
 32
0.0
 13
583.514
 23
492.110
 33
0.0
  0
LINE
  8
L31
 39
1.125
  5
EB
 10
324.014
 20
488.610
 30
0.0
 11
597.514
 21
488.610
 31
0.0
  0
TEXT
  8
L31
 39
1.125
  5
EC
 10
439.764
 20
497.010
 30
0.0
 40
14.000
  1
273.5
 41
0.75
 72
     1
 11
460.764
 21
497.010
 31
0.0
  0
LINE
  8
L31
 39
1.125
  5
ED
 10
362.014
 20
68.610
 30
0.0
 11
160.514
 21
68.610
 31
0.0
  0
SOLID
  8
L31
 39
1.125
  5
EE
 10
164.014
 20
68.610
 30
0.0
 11
164.014
 21
68.610
 31
0.0
 12
160.514
 22
82.610
 32
0.0
 13
167.514
 23
82.610
 33
0.0
  0
LINE
  8
L31
 39
1.125
  5
EF
 10
362.014
 20
268.610
 30
0.0
 11
160.514
 21
268.610
 31
0.0
  0
SOLID
  8
L31
 39
1.125
  5
F0
 10
164.014
 20
268.610
 30
0.0
 11
164.014
 21
268.610
 31
0.0
 12
167.514
 22
254.610
 32
0.0
 13
160.514
 23
254.610
 33
0.0
  0
LINE
  8
L31
 39
1.125
  5
F1
 10
164.014
 20
68.610
 30
0.0
 11
164.014
 21
268.610
 31
0.0
  0
TEXT
  8
L31
 39
1.125
  5
F2
 10
155.614
 20
151.110
 30
0.0
 40
14.000
  1
%%c200
 50
90.0
 41
0.75
 72
     1
 11
155.614
 21
168.610
 31
0.0
  0
LINE
  8
L31
 39
1.125
  5
F3
 10
362.014
 20
86.110
 30
0.0
 11
200.514
 21
86.110
 31
0.0
  0
SOLID
  8
L31
 39
1.125
  5
F4
 10
204.014
 20
86.110
 30
0.0
 11
204.014
 21
86.110
 31
0.0
 12
200.514
 22
100.110
 32
0.0
 13
207.514
 23
100.110
 33
0.0
  0
LINE
  8
L31
 39
1.125
  5
F5
 10
362.014
 20
251.110
 30
0.0
 11
200.514
 21
251.110
 31
0.0
  0
SOLID
  8
L31
 39
1.125
  5
F6
 10
204.014
 20
251.110
 30
0.0
 11
204.014
 21
251.110
 31
0.0
 12
207.514
 22
237.110
 32
0.0
 13
200.514
 23
237.110
 33
0.0
  0
LINE
  8
L31
 39
1.125
  5
F7
 10
204.014
 20
86.110
 30
0.0
 11
204.014
 21
251.110
 31
0.0
  0
TEXT
  8
L31
 39
1.125
  5
F8
 10
195.614
 20
138.510
 30
0.0
 40
14.000
  1
%%c165
 50
90.0
 41
0.75
 72
     1
 11
195.614
 21
156.010
 31
0.0
  0
TEXT
  8
L31
 39
1.125
  5
F9
 10
192.114
 20
177.710
 30
0.0
 40
7.000
  1
%%p0.25
 50
90.0
 41
0.75
  0
LINE
  8
L31
 39
1.125
  5
FA
 10
358.514
 20
103.610
 30
0.0
 11
240.514
 21
103.610
 31
0.0
  0
SOLID
  8
L31
 39
1.125
  5
FB
 10
244.014
 20
103.610
 30
0.0
 11
244.014
 21
103.610
 31
0.0
 12
240.514
 22
117.610
 32
0.0
 13
247.514
 23
117.610
 33
0.0
  0
LINE
  8
L31
 39
1.125
  5
FC
 10
358.514
 20
233.610
 30
0.0
 11
240.514
 21
233.610
 31
0.0
  0
SOLID
  8
L31
 39
1.125
  5
FD
 10
244.014
 20
233.610
 30
0.0
 11
244.014
 21
233.610
 31
0.0
 12
247.514
 22
219.610
 32
0.0
 13
240.514
 23
219.610
 33
0.0
  0
LINE
  8
L31
 39
1.125
  5
FE
 10
244.014
 20
103.610
 30
0.0
 11
244.014
 21
233.610
 31
0.0
  0
TEXT
  8
L31
 39
1.125
  5
FF
 10
235.614
 20
145.685
 30
0.0
 40
14.000
  1
%%c130
 50
90.0
 41
0.75
 72
     1
 11
235.614
 21
162.310
 31
0.0
  0
TEXT
  8
L31
 39
1.125
  5
100
 10
237.014
 20
183.135
 30
0.0
 40
7.000
  1
j6
 50
90.0
 41
0.75
  0
SOLID
  8
L31
 39
1.125
  5
101
 10
364.014
 20
388.610
 30
0.0
 11
364.014
 21
388.610
 31
0.0
 12
350.014
 22
385.110
 32
0.0
 13
350.014
 23
392.110
 33
0.0
  0
SOLID
  8
L31
 39
1.125
  5
102
 10
374.014
 20
388.610
 30
0.0
 11
374.014
 21
388.610
 31
0.0
 12
388.014
 22
392.110
 32
0.0
 13
388.014
 23
385.110
 33
0.0
  0
LINE
  8
L31
 39
1.125
  5
103
 10
323.764
 20
388.610
 30
0.0
 11
395.014
 21
388.610
 31
0.0
  0
TEXT
  8
L31
 39
1.125
  5
104
 10
330.764
 20
397.010
 30
0.0
 40
14.000
  1
10
 41
0.75
 72
     1
 11
336.889
 21
397.010
 31
0.0
  0
SOLID
  8
L31
 39
1.125
  5
105
 10
324.014
 20
348.610
 30
0.0
 11
324.014
 21
348.610
 31
0.0
 12
338.014
 22
352.110
 32
0.0
 13
338.014
 23
345.110
 33
0.0
  0
SOLID
  8
L31
 39
1.125
  5
106
 10
364.014
 20
348.610
 30
0.0
 11
364.014
 21
348.610
 31
0.0
 12
350.014
 22
345.110
 32
0.0
 13
350.014
 23
352.110
 33
0.0
  0
LINE
  8
L31
 39
1.125
  5
107
 10
324.014
 20
348.610
 30
0.0
 11
364.014
 21
348.610
 31
0.0
  0
TEXT
  8
L31
 39
1.125
  5
108
 10
336.139
 20
357.010
 30
0.0
 40
14.000
  1
40
 41
0.75
 72
     1
 11
344.014
 21
357.010
 31
0.0
  0
LINE
  8
L31
 39
1.125
  5
109
 10
360.514
 20
235.610
 30
0.0
 11
360.514
 21
312.110
 31
0.0
  0
SOLID
  8
L31
 39
1.125
  5
10A
 10
360.514
 20
308.610
 30
0.0
 11
360.514
 21
308.610
 31
0.0
 12
346.514
 22
305.110
 32
0.0
 13
346.514
 23
312.110
 33
0.0
  0
LINE
  8
L31
 39
1.125
  5
10B
 10
364.014
 20
270.610
 30
0.0
 11
364.014
 21
312.110
 31
0.0
  0
SOLID
  8
L31
 39
1.125
  5
10C
 10
364.014
 20
308.610
 30
0.0
 11
364.014
 21
308.610
 31
0.0
 12
378.014
 22
312.110
 32
0.0
 13
378.014
 23
305.110
 33
0.0
  0
LINE
  8
L31
 39
1.125
  5
10D
 10
311.514
 20
308.610
 30
0.0
 11
385.014
 21
308.610
 31
0.0
  0
TEXT
  8
L31
 39
1.125
  5
10E
 10
318.514
 20
317.010
 30
0.0
 40
14.000
  1
3.5
 41
0.75
 72
     1
 11
329.014
 21
317.010
 31
0.0
  0
LINE
  8
L31
 39
1.125
  5
10F
 10
427.514
 20
247.610
 30
0.0
 11
427.514
 21
23.110
 31
0.0
  0
SOLID
  8
L31
 39
1.125
  5
110
 10
427.514
 20
26.610
 30
0.0
 11
427.514
 21
26.610
 31
0.0
 12
441.514
 22
30.110
 32
0.0
 13
441.514
 23
23.110
 33
0.0
  0
LINE
  8
L31
 39
1.125
  5
111
 10
364.014
 20
66.610
 30
0.0
 11
364.014
 21
23.110
 31
0.0
  0
SOLID
  8
L31
 39
1.125
  5
112
 10
364.014
 20
26.610
 30
0.0
 11
364.014
 21
26.610
 31
0.0
 12
350.014
 22
23.110
 32
0.0
 13
350.014
 23
30.110
 33
0.0
  0
LINE
  8
L31
 39
1.125
  5
113
 10
448.514
 20
26.610
 30
0.0
 11
304.514
 21
26.610
 31
0.0
  0
TEXT
  8
L31
 39
1.125
  5
114
 10
311.514
 20
35.010
 30
0.0
 40
14.000
  1
63.5
 41
0.75
 72
     1
 11
327.264
 21
35.010
 31
0.0
  0
SOLID
  8
L31
 39
1.125
  5
115
 10
364.014
 20
116.610
 30
0.0
 11
364.014
 21
116.610
 31
0.0
 12
378.014
 22
120.110
 32
0.0
 13
378.014
 23
113.110
 33
0.0
  0
LINE
  8
L31
 39
1.125
  5
116
 10
324.014
 20
157.110
 30
0.0
 11
324.014
 21
113.110
 31
0.0
  0
SOLID
  8
L31
 39
1.125
  5
117
 10
324.014
 20
116.610
 30
0.0
 11
324.014
 21
116.610
 31
0.0
 12
310.014
 22
113.110
 32
0.0
 13
310.014
 23
120.110
 33
0.0
  0
LINE
  8
L31
 39
1.125
  5
118
 10
385.014
 20
116.610
 30
0.0
 11
259.264
 21
116.610
 31
0.0
  0
TEXT
  8
L31
 39
1.125
  5
119
 10
266.264
 20
125.010
 30
0.0
 40
14.000
  1
40
 41
0.75
 72
     1
 11
274.139
 21
125.010
 31
0.0
  0
TEXT
  8
L31
 39
1.125
  5
11A
 10
286.214
 20
123.610
 30
0.0
 40
7.000
  1
-0.5
 41
0.75
  0
LINE
  8
L31
 39
1.125
  5
11B
 10
322.014
 20
159.110
 30
0.0
 11
278.514
 21
159.110
 31
0.0
  0
SOLID
  8
L31
 39
1.125
  5
11C
 10
282.014
 20
159.110
 30
0.0
 11
282.014
 21
159.110
 31
0.0
 12
285.514
 22
145.110
 32
0.0
 13
278.514
 23
145.110
 33
0.0
  0
LINE
  8
L31
 39
1.125
  5
11D
 10
322.014
 20
178.110
 30
0.0
 11
278.514
 21
178.110
 31
0.0
  0
SOLID
  8
L31
 39
1.125
  5
11E
 10
282.014
 20
178.110
 30
0.0
 11
282.014
 21
178.110
 31
0.0
 12
278.514
 22
192.110
 32
0.0
 13
285.514
 23
192.110
 33
0.0
  0
LINE
  8
L31
 39
1.125
  5
11F
 10
282.014
 20
138.110
 30
0.0
 11
282.014
 21
199.110
 31
0.0
  0
TEXT
  8
L31
 39
1.125
  5
120
 10
273.614
 20
150.060
 30
0.0
 40
14.000
  1
%%c19
 50
90.0
 41
0.75
 72
     1
 11
273.614
 21
162.310
 31
0.0
  0
TEXT
  8
L31
 39
1.125
  5
121
 10
275.014
 20
178.760
 30
0.0
 40
7.000
  1
j6
 50
90.0
 41
0.75
  0
LINE
  8
L31
 39
1.125
  5
122
 10
364.014
 20
156.610
 30
0.0
 11
364.014
 21
145.110
 31
0.0
  0
SOLID
  8
L31
 39
1.125
  5
123
 10
364.014
 20
148.610
 30
0.0
 11
364.014
 21
148.610
 31
0.0
 12
378.014
 22
152.110
 32
0.0
 13
378.014
 23
145.110
 33
0.0
  0
LINE
  8
L31
 39
1.125
  5
124
 10
360.014
 20
170.610
 30
0.0
 11
360.014
 21
145.110
 31
0.0
  0
SOLID
  8
L31
 39
1.125
  5
125
 10
360.014
 20
148.610
 30
0.0
 11
360.014
 21
148.610
 31
0.0
 12
346.014
 22
145.110
 32
0.0
 13
346.014
 23
152.110
 33
0.0
  0
LINE
  8
L31
 39
1.125
  5
126
 10
399.014
 20
148.610
 30
0.0
 11
339.014
 21
148.610
 31
0.0
  0
TEXT
  8
L31
 39
1.125
  5
127
 10
385.014
 20
157.010
 30
0.0
 40
14.000
  1
4
 41
0.75
 72
     1
 11
388.514
 21
157.010
 31
0.0
  0
LINE
  8
L31
 39
1.125
  5
128
 10
328.014
 20
170.610
 30
0.0
 11
328.014
 21
201.610
 31
0.0
  0
SOLID
  8
L31
 39
1.125
  5
129
 10
328.014
 20
198.110
 30
0.0
 11
328.014
 21
198.110
 31
0.0
 12
314.014
 22
194.610
 32
0.0
 13
314.014
 23
201.610
 33
0.0
  0
LINE
  8
L31
 39
1.125
  5
12A
 10
360.014
 20
170.610
 30
0.0
 11
360.014
 21
201.610
 31
0.0
  0
SOLID
  8
L31
 39
1.125
  5
12B
 10
360.014
 20
198.110
 30
0.0
 11
360.014
 21
198.110
 31
0.0
 12
374.014
 22
201.610
 32
0.0
 13
374.014
 23
194.610
 33
0.0
  0
LINE
  8
L31
 39
1.125
  5
12C
 10
307.014
 20
198.110
 30
0.0
 11
381.014
 21
198.110
 31
0.0
  0
TEXT
  8
L31
 39
1.125
  5
12D
 10
335.264
 20
206.510
 30
0.0
 40
14.000
  1
32
 41
0.75
 72
     1
 11
344.014
 21
206.510
 31
0.0
  0
SOLID
  8
L31
 39
1.125
  5
12E
 10
390.014
 20
448.610
 30
0.0
 11
390.014
 21
448.610
 31
0.0
 12
404.014
 22
452.110
 32
0.0
 13
404.014
 23
445.110
 33
0.0
  0
LINE
  8
L31
 39
1.125
  5
12F
 10
465.014
 20
281.610
 30
0.0
 11
465.014
 21
452.110
 31
0.0
  0
SOLID
  8
L31
 39
1.125
  5
130
 10
465.014
 20
448.610
 30
0.0
 11
465.014
 21
448.610
 31
0.0
 12
451.014
 22
445.110
 32
0.0
 13
451.014
 23
452.110
 33
0.0
  0
LINE
  8
L31
 39
1.125
  5
131
 10
390.014
 20
448.610
 30
0.0
 11
465.014
 21
448.610
 31
0.0
  0
TEXT
  8
L31
 39
1.125
  5
132
 10
418.764
 20
457.010
 30
0.0
 40
14.000
  1
75
 41
0.75
 72
     1
 11
427.514
 21
457.010
 31
0.0
  0
SOLID
  8
L31
 39
1.125
  5
133
 10
409.514
 20
408.610
 30
0.0
 11
409.514
 21
408.610
 31
0.0
 12
395.514
 22
405.110
 32
0.0
 13
395.514
 23
412.110
 33
0.0
  0
SOLID
  8
L31
 39
1.125
  5
134
 10
427.514
 20
408.610
 30
0.0
 11
427.514
 21
408.610
 31
0.0
 12
441.514
 22
412.110
 32
0.0
 13
441.514
 23
405.110
 33
0.0
  0
LINE
  8
L31
 39
1.125
  5
135
 10
388.514
 20
408.610
 30
0.0
 11
448.514
 21
408.610
 31
0.0
  0
TEXT
  8
L31
 39
1.125
  5
136
 10
411.514
 20
417.010
 30
0.0
 40
14.000
  1
18
 41
0.75
 72
     1
 11
418.514
 21
417.010
 31
0.0
  0
LINE
  8
L31
 39
1.125
  5
137
 10
409.514
 20
273.110
 30
0.0
 11
409.514
 21
372.110
 31
0.0
  0
SOLID
  8
L31
 39
1.125
  5
138
 10
409.514
 20
368.610
 30
0.0
 11
409.514
 21
368.610
 31
0.0
 12
395.514
 22
365.110
 32
0.0
 13
395.514
 23
372.110
 33
0.0
  0
LINE
  8
L31
 39
1.125
  5
139
 10
441.514
 20
273.110
 30
0.0
 11
441.514
 21
372.110
 31
0.0
  0
SOLID
  8
L31
 39
1.125
  5
13A
 10
441.514
 20
368.610
 30
0.0
 11
441.514
 21
368.610
 31
0.0
 12
455.514
 22
372.110
 32
0.0
 13
455.514
 23
365.110
 33
0.0
  0
LINE
  8
L31
 39
1.125
  5
13B
 10
388.514
 20
368.610
 30
0.0
 11
462.514
 21
368.610
 31
0.0
  0
TEXT
  8
L31
 39
1.125
  5
13C
 10
416.764
 20
377.010
 30
0.0
 40
14.000
  1
32
 41
0.75
 72
     1
 11
425.514
 21
377.010
 31
0.0
  0
LINE
  8
L11
 39
0.925
  5
30
 10
856.366
 20
268.530
 30
0.0
 11
856.366
 21
292.610
 31
0.0
  0
LINE
  8
L03
 39
1.850
  5
31
 10
893.866
 20
279.610
 30
0.0
 11
893.866
 21
261.237
 31
0.0
  0
LINE
  8
L03
 39
1.850
  5
32
 10
818.866
 20
261.291
 30
0.0
 11
818.866
 21
279.610
 31
0.0
  0
LINE
  8
L03
 39
1.850
  5
33
 10
896.866
 20
260.020
 30
0.0
 11
896.866
 21
275.110
 31
0.0
  0
LINE
  8
L03
 39
1.850
  5
34
 10
893.866
 20
275.110
 30
0.0
 11
893.866
 21
261.302
 31
0.0
  0
ARC
  8
L03
 39
1.850
  5
35
 10
873.536
 20
265.110
 30
0.0
 40
25.330
 50
-12.959525
 51
22.619865
  0
LINE
  8
L03
 39
1.850
  5
36
 10
896.866
 20
275.110
 30
0.0
 11
893.866
 21
275.110
 31
0.0
  0
LINE
  8
L11
 39
0.925
  5
37
 10
893.866
 20
265.110
 30
0.0
 11
902.866
 21
265.110
 31
0.0
  0
LINE
  8
L03
 39
1.850
  5
38
 10
818.866
 20
279.610
 30
0.0
 11
818.988
 21
286.610
 31
0.0
  0
LINE
  8
L03
 39
1.850
  5
39
 10
818.988
 20
286.610
 30
0.0
 11
831.488
 21
286.610
 31
0.0
  0
LINE
  8
L03
 39
1.850
  5
3A
 10
831.488
 20
286.610
 30
0.0
 11
831.488
 21
287.610
 31
0.0
  0
LINE
  8
L03
 39
1.850
  5
3B
 10
831.488
 20
287.610
 30
0.0
 11
837.488
 21
287.610
 31
0.0
  0
LINE
  8
L03
 39
1.850
  5
3C
 10
837.488
 20
287.610
 30
0.0
 11
837.488
 21
288.610
 31
0.0
  0
LINE
  8
L03
 39
1.850
  5
3D
 10
837.488
 20
288.610
 30
0.0
 11
875.244
 21
288.610
 31
0.0
  0
LINE
  8
L03
 39
1.850
  5
3E
 10
875.244
 20
288.610
 30
0.0
 11
875.244
 21
287.610
 31
0.0
  0
LINE
  8
L03
 39
1.850
  5
3F
 10
875.244
 20
287.610
 30
0.0
 11
881.244
 21
287.610
 31
0.0
  0
LINE
  8
L03
 39
1.850
  5
40
 10
881.244
 20
287.610
 30
0.0
 11
881.244
 21
286.610
 31
0.0
  0
LINE
  8
L03
 39
1.850
  5
41
 10
881.244
 20
286.610
 30
0.0
 11
893.744
 21
286.610
 31
0.0
  0
LINE
  8
L03
 39
1.850
  5
42
 10
893.744
 20
286.610
 30
0.0
 11
893.866
 21
279.610
 31
0.0
  0
LINE
  8
L03
 39
1.850
  5
43
 10
893.866
 20
279.610
 30
0.0
 11
818.866
 21
279.610
 31
0.0
  0
CIRCLE
  8
L03
 39
1.850
  5
44
 10
856.366
 20
168.610
 30
0.0
 40
18.000
  0
CIRCLE
  8
L03
 39
1.850
  5
45
 10
856.366
 20
168.610
 30
0.0
 40
65.000
  0
CIRCLE
  8
L03
 39
1.850
  5
46
 10
856.366
 20
168.610
 30
0.0
 40
59.000
  0
CIRCLE
  8
L03
 39
1.850
  5
47
 10
856.366
 20
168.610
 30
0.0
 40
100.000
  0
CIRCLE
  8
L03
 39
1.850
  5
48
 10
914.702
 20
226.946
 30
0.0
 40
6.000
  0
LINE
  8
L11
 39
0.925
  5
49
 10
907.631
 20
219.875
 30
0.0
 11
921.773
 21
234.017
 31
0.0
  0
CIRCLE
  8
L03
 39
1.850
  5
4A
 10
914.702
 20
110.274
 30
0.0
 40
6.000
  0
LINE
  8
L11
 39
0.925
  5
4B
 10
921.773
 20
103.203
 30
0.0
 11
907.631
 21
117.345
 31
0.0
  0
CIRCLE
  8
L03
 39
1.850
  5
4C
 10
798.030
 20
110.274
 30
0.0
 40
6.000
  0
LINE
  8
L11
 39
0.925
  5
4D
 10
805.101
 20
117.345
 30
0.0
 11
790.959
 21
103.203
 31
0.0
  0
CIRCLE
  8
L03
 39
1.850
  5
4E
 10
798.030
 20
226.946
 30
0.0
 40
6.000
  0
LINE
  8
L11
 39
0.925
  5
4F
 10
790.959
 20
234.017
 30
0.0
 11
805.101
 21
219.875
 31
0.0
  0
CIRCLE
  8
L11
 39
0.925
  5
50
 10
856.366
 20
168.610
 30
0.0
 40
82.500
  0
LINE
  8
L11
 39
0.925
  5
51
 10
752.366
 20
168.610
 30
0.0
 11
960.366
 21
168.610
 31
0.0
  0
LINE
  8
L11
 39
0.925
  5
52
 10
856.366
 20
64.610
 30
0.0
 11
856.366
 21
272.610
 31
0.0
  0
POLYLINE
  8
L03
 39
1.850
  5
53
 66
     1
 10
2.866
 20
-1191.390
 30
0.0
  0
VERTEX
  8
L03
 39
1.850
  5
54
 10
865.380
 20
171.610
 30
0.0
  0
VERTEX
  8
L03
 39
1.850
  5
55
 10
868.366
 20
171.610
 30
0.0
  0
VERTEX
  8
L03
 39
1.850
  5
56
 10
868.366
 20
165.610
 30
0.0
  0
VERTEX
  8
L03
 39
1.850
  5
57
 10
865.380
 20
165.610
 30
0.0
  0
SEQEND
  8
L03
 39
1.850
  5
58
  0
ARC
  8
L03
 39
1.850
  5
59
 10
856.366
 20
168.610
 30
0.0
 40
10.000
 50
17.457603
 51
-17.457603
  0
CIRCLE
  8
L03
 39
1.850
  5
13D
 10
856.366
 20
168.610
 30
0.0
 40
9.500
  0
LINE
  8
L31
 39
1.125
  5
13E
 10
798.030
 20
226.946
 30
0.0
 11
718.030
 21
368.610
 31
0.0
  0
CIRCLE
  8
L31
 39
1.125
  5
13F
 10
798.030
 20
226.946
 30
0.0
 40
1.400
  0
CIRCLE
  8
L31
 39
1.125
  5
140
 10
798.030
 20
226.946
 30
0.0
 40
0.467
  0
TEXT
  8
L31
 39
1.125
  5
141
 10
658.588
 20
379.372
 30
0.0
 40
14.000
  1
4x %%c12
 41
0.75
 72
     2
 11
714.588
 21
374.705
 31
0.0
 73
     1
  0
LINE
  8
L31
 39
1.125
  5
142
 10
895.866
 20
265.110
 30
0.0
 11
999.866
 21
265.110
 31
0.0
  0
SOLID
  8
L31
 39
1.125
  5
143
 10
996.366
 20
265.110
 30
0.0
 11
996.366
 21
265.110
 31
0.0
 12
999.866
 22
251.110
 32
0.0
 13
992.866
 23
251.110
 33
0.0
  0
LINE
  8
L31
 39
1.125
  5
144
 10
958.366
 20
168.610
 30
0.0
 11
999.866
 21
168.610
 31
0.0
  0
SOLID
  8
L31
 39
1.125
  5
145
 10
996.366
 20
168.610
 30
0.0
 11
996.366
 21
168.610
 31
0.0
 12
992.866
 22
182.610
 32
0.0
 13
999.866
 23
182.610
 33
0.0
  0
LINE
  8
L31
 39
1.125
  5
146
 10
996.366
 20
265.110
 30
0.0
 11
996.366
 21
168.610
 31
0.0
  0
TEXT
  8
L31
 39
1.125
  5
147
 10
987.966
 20
208.110
 30
0.0
 40
14.000
  1
97
 50
90.0
 41
0.75
 72
     1
 11
987.966
 21
216.860
 31
0.0
  0
LINE
  8
L31
 39
1.125
  5
148
 10
877.366
 20
288.610
 30
0.0
 11
1039.866
 21
288.610
 31
0.0
  0
SOLID
  8
L31
 39
1.125
  5
149
 10
1036.366
 20
288.610
 30
0.0
 11
1036.366
 21
288.610
 31
0.0
 12
1039.866
 22
274.610
 32
0.0
 13
1032.866
 23
274.610
 33
0.0
  0
LINE
  8
L31
 39
1.125
  5
14A
 10
958.366
 20
168.610
 30
0.0
 11
1039.866
 21
168.610
 31
0.0
  0
SOLID
  8
L31
 39
1.125
  5
14B
 10
1036.366
 20
168.610
 30
0.0
 11
1036.366
 21
168.610
 31
0.0
 12
1032.866
 22
182.610
 32
0.0
 13
1039.866
 23
182.610
 33
0.0
  0
LINE
  8
L31
 39
1.125
  5
14C
 10
1036.366
 20
288.610
 30
0.0
 11
1036.366
 21
168.610
 31
0.0
  0
TEXT
  8
L31
 39
1.125
  5
14D
 10
1027.966
 20
217.235
 30
0.0
 40
14.000
  1
120
 50
90.0
 41
0.75
 72
     1
 11
1027.966
 21
228.610
 31
0.0
  0
LINE
  8
L31
 39
1.125
  5
14E
 10
818.866
 20
281.610
 30
0.0
 11
818.866
 21
332.110
 31
0.0
  0
SOLID
  8
L31
 39
1.125
  5
14F
 10
818.866
 20
328.610
 30
0.0
 11
818.866
 21
328.610
 31
0.0
 12
832.866
 22
332.110
 32
0.0
 13
832.866
 23
325.110
 33
0.0
  0
LINE
  8
L31
 39
1.125
  5
150
 10
893.866
 20
281.610
 30
0.0
 11
893.866
 21
332.110
 31
0.0
  0
SOLID
  8
L31
 39
1.125
  5
151
 10
893.866
 20
328.610
 30
0.0
 11
893.866
 21
328.610
 31
0.0
 12
879.866
 22
325.110
 32
0.0
 13
879.866
 23
332.110
 33
0.0
  0
LINE
  8
L31
 39
1.125
  5
152
 10
818.866
 20
328.610
 30
0.0
 11
893.866
 21
328.610
 31
0.0
  0
TEXT
  8
L31
 39
1.125
  5
153
 10
847.616
 20
337.010
 30
0.0
 40
14.000
  1
75
 41
0.75
 72
     1
 11
856.366
 21
337.010
 31
0.0
  0
LINE
  5
154
  8
EBENE01
 10
-21.810
 20
-135.402
 30
0.0
 11
-21.810
 21
669.759
 31
0.0
  0
LINE
  5
155
  8
EBENE01
 10
-21.810
 20
669.759
 30
0.0
 11
1072.584
 21
669.759
 31
0.0
  0
LINE
  5
156
  8
EBENE01
 10
1072.584
 20
-135.402
 30
0.0
 11
1072.584
 21
669.759
 31
0.0
  0
LINE
  5
157
  8
EBENE01
 10
-21.810
 20
-135.402
 30
0.0
 11
1072.584
 21
-135.402
 31
0.0
  0
LINE
  5
158
  8
EBENE01
 62
     4
 10
819.940
 20
-127.072
 30
0.0
 11
819.940
 21
-130.206
 31
0.0
  0
LINE
  5
159
  8
EBENE01
 62
     4
 10
830.752
 20
-118.078
 30
0.0
 11
830.752
 21
-115.006
 31
0.0
  0
LINE
  5
15A
  8
EBENE01
 62
     4
 10
728.650
 20
-127.072
 30
0.0
 11
728.650
 21
-130.206
 31
0.0
  0
LINE
  5
15B
  8
EBENE01
 62
     4
 10
739.462
 20
-118.078
 30
0.0
 11
739.462
 21
-115.006
 31
0.0
  0
LINE
  5
15C
  8
EBENE01
 62
     4
 10
788.978
 20
-114.850
 30
0.0
 11
788.978
 21
-130.519
 31
0.0
  0
LINE
  5
15D
  8
EBENE01
 62
     4
 10
800.573
 20
-114.850
 30
0.0
 11
788.978
 21
-114.850
 31
0.0
  0
LINE
  5
15E
  8
EBENE01
 62
     4
 10
800.573
 20
-117.764
 30
0.0
 11
800.573
 21
-114.850
 31
0.0
  0
LINE
  5
15F
  8
EBENE01
 62
     4
 10
793.616
 20
-117.764
 30
0.0
 11
800.573
 21
-117.764
 31
0.0
  0
LINE
  5
160
  8
EBENE01
 62
     4
 10
793.616
 20
-121.212
 30
0.0
 11
793.616
 21
-117.764
 31
0.0
  0
LINE
  5
161
  8
EBENE01
 62
     4
 10
799.727
 20
-121.212
 30
0.0
 11
793.616
 21
-121.212
 31
0.0
  0
LINE
  5
162
  8
EBENE01
 62
     4
 10
799.727
 20
-123.875
 30
0.0
 11
799.727
 21
-121.212
 31
0.0
  0
LINE
  5
163
  8
EBENE01
 62
     4
 10
793.616
 20
-123.875
 30
0.0
 11
799.727
 21
-123.875
 31
0.0
  0
LINE
  5
164
  8
EBENE01
 62
     4
 10
793.616
 20
-127.542
 30
0.0
 11
793.616
 21
-123.875
 31
0.0
  0
LINE
  5
165
  8
EBENE01
 62
     4
 10
800.730
 20
-127.542
 30
0.0
 11
793.616
 21
-127.542
 31
0.0
  0
LINE
  5
166
  8
EBENE01
 62
     4
 10
800.730
 20
-130.519
 30
0.0
 11
800.730
 21
-127.542
 31
0.0
  0
LINE
  5
167
  8
EBENE01
 62
     4
 10
788.978
 20
-130.519
 30
0.0
 11
800.730
 21
-130.519
 31
0.0
  0
LINE
  5
168
  8
EBENE01
 62
     4
 10
812.106
 20
-130.519
 30
0.0
 11
817.120
 21
-130.519
 31
0.0
  0
LINE
  5
169
  8
EBENE01
 62
     4
 10
806.371
 20
-120.491
 30
0.0
 11
812.106
 21
-130.519
 31
0.0
  0
LINE
  5
16A
  8
EBENE01
 62
     4
 10
806.371
 20
-130.519
 30
0.0
 11
806.371
 21
-120.491
 31
0.0
  0
LINE
  5
16B
  8
EBENE01
 62
     4
 10
803.331
 20
-130.519
 30
0.0
 11
806.371
 21
-130.519
 31
0.0
  0
LINE
  5
16C
  8
EBENE01
 62
     4
 10
803.331
 20
-114.850
 30
0.0
 11
803.331
 21
-130.519
 31
0.0
  0
LINE
  5
16D
  8
EBENE01
 62
     4
 10
808.408
 20
-114.850
 30
0.0
 11
803.331
 21
-114.850
 31
0.0
  0
LINE
  5
16E
  8
EBENE01
 62
     4
 10
813.986
 20
-125.286
 30
0.0
 11
808.408
 21
-114.850
 31
0.0
  0
LINE
  5
16F
  8
EBENE01
 62
     4
 10
813.986
 20
-114.850
 30
0.0
 11
813.986
 21
-125.286
 31
0.0
  0
LINE
  5
170
  8
EBENE01
 62
     4
 10
817.120
 20
-114.850
 30
0.0
 11
813.986
 21
-114.850
 31
0.0
  0
LINE
  5
171
  8
EBENE01
 62
     4
 10
817.120
 20
-130.519
 30
0.0
 11
817.120
 21
-114.850
 31
0.0
  0
LINE
  5
172
  8
EBENE01
 62
     4
 10
780.767
 20
-120.428
 30
0.0
 11
780.767
 21
-130.519
 31
0.0
  0
LINE
  5
173
  8
EBENE01
 62
     4
 10
776.285
 20
-130.676
 30
0.0
 11
780.767
 21
-120.428
 31
0.0
  0
LINE
  5
174
  8
EBENE01
 62
     4
 10
773.308
 20
-130.676
 30
0.0
 11
776.285
 21
-130.676
 31
0.0
  0
LINE
  5
175
  8
EBENE01
 62
     4
 10
768.921
 20
-120.428
 30
0.0
 11
773.308
 21
-130.676
 31
0.0
  0
LINE
  5
176
  8
EBENE01
 62
     4
 10
768.921
 20
-130.519
 30
0.0
 11
768.921
 21
-120.428
 31
0.0
  0
LINE
  5
177
  8
EBENE01
 62
     4
 10
765.724
 20
-130.519
 30
0.0
 11
768.921
 21
-130.519
 31
0.0
  0
LINE
  5
178
  8
EBENE01
 62
     4
 10
765.724
 20
-114.850
 30
0.0
 11
765.724
 21
-130.519
 31
0.0
  0
LINE
  5
179
  8
EBENE01
 62
     4
 10
771.522
 20
-114.850
 30
0.0
 11
765.724
 21
-114.850
 31
0.0
  0
LINE
  5
17A
  8
EBENE01
 62
     4
 10
775.596
 20
-122.935
 30
0.0
 11
771.522
 21
-114.850
 31
0.0
  0
LINE
  5
17B
  8
EBENE01
 62
     4
 10
779.670
 20
-114.850
 30
0.0
 11
775.596
 21
-122.935
 31
0.0
  0
LINE
  5
17C
  8
EBENE01
 62
     4
 10
785.311
 20
-114.850
 30
0.0
 11
779.670
 21
-114.850
 31
0.0
  0
LINE
  5
17D
  8
EBENE01
 62
     4
 10
785.311
 20
-130.519
 30
0.0
 11
785.311
 21
-114.850
 31
0.0
  0
LINE
  5
17E
  8
EBENE01
 62
     4
 10
780.767
 20
-130.519
 30
0.0
 11
785.311
 21
-130.519
 31
0.0
  0
LINE
  5
17F
  8
EBENE01
 62
     4
 10
751.371
 20
-114.850
 30
0.0
 11
751.371
 21
-130.519
 31
0.0
  0
LINE
  5
180
  8
EBENE01
 62
     4
 10
762.966
 20
-114.850
 30
0.0
 11
751.371
 21
-114.850
 31
0.0
  0
LINE
  5
181
  8
EBENE01
 62
     4
 10
762.966
 20
-117.764
 30
0.0
 11
762.966
 21
-114.850
 31
0.0
  0
LINE
  5
182
  8
EBENE01
 62
     4
 10
756.009
 20
-117.764
 30
0.0
 11
762.966
 21
-117.764
 31
0.0
  0
LINE
  5
183
  8
EBENE01
 62
     4
 10
756.009
 20
-121.212
 30
0.0
 11
756.009
 21
-117.764
 31
0.0
  0
LINE
  5
184
  8
EBENE01
 62
     4
 10
762.120
 20
-121.212
 30
0.0
 11
756.009
 21
-121.212
 31
0.0
  0
LINE
  5
185
  8
EBENE01
 62
     4
 10
762.120
 20
-123.875
 30
0.0
 11
762.120
 21
-121.212
 31
0.0
  0
LINE
  5
186
  8
EBENE01
 62
     4
 10
756.009
 20
-123.875
 30
0.0
 11
762.120
 21
-123.875
 31
0.0
  0
LINE
  5
187
  8
EBENE01
 62
     4
 10
756.009
 20
-127.542
 30
0.0
 11
756.009
 21
-123.875
 31
0.0
  0
LINE
  5
188
  8
EBENE01
 62
     4
 10
763.123
 20
-127.542
 30
0.0
 11
756.009
 21
-127.542
 31
0.0
  0
LINE
  5
189
  8
EBENE01
 62
     4
 10
763.123
 20
-130.519
 30
0.0
 11
763.123
 21
-127.542
 31
0.0
  0
LINE
  5
18A
  8
EBENE01
 62
     4
 10
751.371
 20
-130.519
 30
0.0
 11
763.123
 21
-130.519
 31
0.0
  0
LINE
  5
18B
  8
EBENE01
 62
     4
 10
747.861
 20
-130.519
 30
0.0
 11
747.861
 21
-114.850
 31
0.0
  0
LINE
  5
18C
  8
EBENE01
 62
     4
 10
743.160
 20
-114.850
 30
0.0
 11
743.160
 21
-130.519
 31
0.0
  0
LINE
  5
18D
  8
EBENE01
 62
     4
 10
747.861
 20
-114.850
 30
0.0
 11
743.160
 21
-114.850
 31
0.0
  0
LINE
  5
18E
  8
EBENE01
 62
     4
 10
743.160
 20
-130.519
 30
0.0
 11
747.861
 21
-130.519
 31
0.0
  0
TEXT
  5
18F
  8
EBENE01
 10
9.459
 20
-115.625
 30
0.0
 40
9.771
  1

 41
0.8218235294117645
 72
     5
 11
191.480
 21
-115.625
 31
0.0
  0
TEXT
  5
190
  8
EBENE01
 10
896.190
 20
-44.024
 30
0.0
 40
6.254
  1

 50
0.0007432756564034
  0
TEXT
  5
191
  8
EBENE01
 10
848.463
 20
-93.165
 30
0.0
 40
9.771
  1
1LA7083-4AA11
 41
0.8409230769230767
 72
     5
 11
919.676
 21
-93.165
 31
0.0
  0
TEXT
  5
192
  8
EBENE01
 10
896.451
 20
-65.604
 30
0.0
 40
6.254
  1

 50
359.97509047842152
  0
TEXT
  5
193
  8
EBENE01
 10
853.600
 20
-124.889
 30
0.0
 40
9.771
  1

 41
0.8836363636363632
 72
     5
 11
948.578
 21
-124.889
 31
0.0
  0
TEXT
  5
194
  8
EBENE01
 10
958.090
 20
-124.889
 30
0.0
 40
9.771
  1

 41
0.8576470588235299
 72
     5
 11
1053.068
 21
-124.889
 31
0.0
  0
POLYLINE
  5
195
  8
EBENE01
 62
     4
 66
     1
 10
-42.994
 20
-179.842
 30
0.0
 70
    12
 75
     6
  0
VERTEX
  5
196
  8
EBENE01
 62
     4
 10
830.752
 20
-115.006
 30
0.0
 70
    40
  0
VERTEX
  5
197
  8
EBENE01
 62
     4
 10
830.752
 20
-115.006
 30
0.0
 70
    48
  0
VERTEX
  5
198
  8
EBENE01
 62
     4
 10
829.969
 20
-114.850
 30
0.0
 70
    40
  0
VERTEX
  5
199
  8
EBENE01
 62
     4
 10
829.969
 20
-114.850
 30
0.0
 70
    48
  0
VERTEX
  5
19A
  8
EBENE01
 62
     4
 10
829.405
 20
-114.756
 30
0.0
 70
    40
  0
VERTEX
  5
19B
  8
EBENE01
 62
     4
 10
829.405
 20
-114.756
 30
0.0
 70
    48
  0
VERTEX
  5
19C
  8
EBENE01
 62
     4
 10
829.405
 20
-114.756
 30
0.0
 70
    40
  0
VERTEX
  5
19D
  8
EBENE01
 62
     4
 10
829.405
 20
-114.756
 30
0.0
 70
    48
  0
VERTEX
  5
19E
  8
EBENE01
 62
     4
 10
828.935
 20
-114.693
 30
0.0
 70
    40
  0
VERTEX
  5
19F
  8
EBENE01
 62
     4
 10
828.935
 20
-114.693
 30
0.0
 70
    48
  0
VERTEX
  5
1A0
  8
EBENE01
 62
     4
 10
828.558
 20
-114.630
 30
0.0
 70
    40
  0
VERTEX
  5
1A1
  8
EBENE01
 62
     4
 10
828.558
 20
-114.630
 30
0.0
 70
    48
  0
VERTEX
  5
1A2
  8
EBENE01
 62
     4
 10
828.558
 20
-114.630
 30
0.0
 70
    40
  0
VERTEX
  5
1A3
  8
EBENE01
 62
     4
 10
828.558
 20
-114.630
 30
0.0
 70
    48
  0
VERTEX
  5
1A4
  8
EBENE01
 62
     4
 10
828.151
 20
-114.599
 30
0.0
 70
    40
  0
VERTEX
  5
1A5
  8
EBENE01
 62
     4
 10
828.151
 20
-114.599
 30
0.0
 70
    48
  0
VERTEX
  5
1A6
  8
EBENE01
 62
     4
 10
827.775
 20
-114.536
 30
0.0
 70
    40
  0
VERTEX
  5
1A7
  8
EBENE01
 62
     4
 10
827.775
 20
-114.536
 30
0.0
 70
    48
  0
VERTEX
  5
1A8
  8
EBENE01
 62
     4
 10
827.775
 20
-114.536
 30
0.0
 70
    40
  0
VERTEX
  5
1A9
  8
EBENE01
 62
     4
 10
827.775
 20
-114.536
 30
0.0
 70
    48
  0
VERTEX
  5
1AA
  8
EBENE01
 62
     4
 10
827.368
 20
-114.505
 30
0.0
 70
    40
  0
VERTEX
  5
1AB
  8
EBENE01
 62
     4
 10
827.368
 20
-114.505
 30
0.0
 70
    48
  0
VERTEX
  5
1AC
  8
EBENE01
 62
     4
 10
826.992
 20
-114.474
 30
0.0
 70
    40
  0
VERTEX
  5
1AD
  8
EBENE01
 62
     4
 10
826.992
 20
-114.474
 30
0.0
 70
    48
  0
VERTEX
  5
1AE
  8
EBENE01
 62
     4
 10
826.992
 20
-114.474
 30
0.0
 70
    40
  0
VERTEX
  5
1AF
  8
EBENE01
 62
     4
 10
826.992
 20
-114.474
 30
0.0
 70
    48
  0
VERTEX
  5
1B0
  8
EBENE01
 62
     4
 10
826.584
 20
-114.442
 30
0.0
 70
    40
  0
VERTEX
  5
1B1
  8
EBENE01
 62
     4
 10
826.584
 20
-114.442
 30
0.0
 70
    48
  0
VERTEX
  5
1B2
  8
EBENE01
 62
     4
 10
826.208
 20
-114.442
 30
0.0
 70
    40
  0
VERTEX
  5
1B3
  8
EBENE01
 62
     4
 10
826.208
 20
-114.442
 30
0.0
 70
    48
  0
VERTEX
  5
1B4
  8
EBENE01
 62
     4
 10
826.208
 20
-114.442
 30
0.0
 70
    40
  0
VERTEX
  5
1B5
  8
EBENE01
 62
     4
 10
826.208
 20
-114.442
 30
0.0
 70
    48
  0
VERTEX
  5
1B6
  8
EBENE01
 62
     4
 10
825.801
 20
-114.442
 30
0.0
 70
    40
  0
VERTEX
  5
1B7
  8
EBENE01
 62
     4
 10
825.801
 20
-114.442
 30
0.0
 70
    48
  0
VERTEX
  5
1B8
  8
EBENE01
 62
     4
 10
825.425
 20
-114.474
 30
0.0
 70
    40
  0
VERTEX
  5
1B9
  8
EBENE01
 62
     4
 10
825.425
 20
-114.474
 30
0.0
 70
    48
  0
VERTEX
  5
1BA
  8
EBENE01
 62
     4
 10
825.425
 20
-114.474
 30
0.0
 70
    40
  0
VERTEX
  5
1BB
  8
EBENE01
 62
     4
 10
825.425
 20
-114.474
 30
0.0
 70
    48
  0
VERTEX
  5
1BC
  8
EBENE01
 62
     4
 10
825.017
 20
-114.505
 30
0.0
 70
    40
  0
VERTEX
  5
1BD
  8
EBENE01
 62
     4
 10
825.017
 20
-114.505
 30
0.0
 70
    48
  0
VERTEX
  5
1BE
  8
EBENE01
 62
     4
 10
824.641
 20
-114.568
 30
0.0
 70
    40
  0
VERTEX
  5
1BF
  8
EBENE01
 62
     4
 10
824.641
 20
-114.568
 30
0.0
 70
    48
  0
VERTEX
  5
1C0
  8
EBENE01
 62
     4
 10
824.641
 20
-114.568
 30
0.0
 70
    40
  0
VERTEX
  5
1C1
  8
EBENE01
 62
     4
 10
824.641
 20
-114.568
 30
0.0
 70
    48
  0
VERTEX
  5
1C2
  8
EBENE01
 62
     4
 10
824.234
 20
-114.630
 30
0.0
 70
    40
  0
VERTEX
  5
1C3
  8
EBENE01
 62
     4
 10
824.234
 20
-114.630
 30
0.0
 70
    48
  0
VERTEX
  5
1C4
  8
EBENE01
 62
     4
 10
823.858
 20
-114.693
 30
0.0
 70
    40
  0
VERTEX
  5
1C5
  8
EBENE01
 62
     4
 10
823.858
 20
-114.693
 30
0.0
 70
    48
  0
VERTEX
  5
1C6
  8
EBENE01
 62
     4
 10
823.858
 20
-114.693
 30
0.0
 70
    40
  0
VERTEX
  5
1C7
  8
EBENE01
 62
     4
 10
823.858
 20
-114.693
 30
0.0
 70
    48
  0
VERTEX
  5
1C8
  8
EBENE01
 62
     4
 10
823.450
 20
-114.787
 30
0.0
 70
    40
  0
VERTEX
  5
1C9
  8
EBENE01
 62
     4
 10
823.450
 20
-114.787
 30
0.0
 70
    48
  0
VERTEX
  5
1CA
  8
EBENE01
 62
     4
 10
823.074
 20
-114.881
 30
0.0
 70
    40
  0
VERTEX
  5
1CB
  8
EBENE01
 62
     4
 10
823.074
 20
-114.881
 30
0.0
 70
    48
  0
VERTEX
  5
1CC
  8
EBENE01
 62
     4
 10
823.074
 20
-114.881
 30
0.0
 70
    40
  0
VERTEX
  5
1CD
  8
EBENE01
 62
     4
 10
823.074
 20
-114.881
 30
0.0
 70
    48
  0
VERTEX
  5
1CE
  8
EBENE01
 62
     4
 10
822.667
 20
-115.038
 30
0.0
 70
    40
  0
VERTEX
  5
1CF
  8
EBENE01
 62
     4
 10
822.667
 20
-115.038
 30
0.0
 70
    48
  0
VERTEX
  5
1D0
  8
EBENE01
 62
     4
 10
822.291
 20
-115.194
 30
0.0
 70
    40
  0
VERTEX
  5
1D1
  8
EBENE01
 62
     4
 10
822.291
 20
-115.194
 30
0.0
 70
    48
  0
VERTEX
  5
1D2
  8
EBENE01
 62
     4
 10
822.291
 20
-115.194
 30
0.0
 70
    40
  0
VERTEX
  5
1D3
  8
EBENE01
 62
     4
 10
822.291
 20
-115.194
 30
0.0
 70
    48
  0
VERTEX
  5
1D4
  8
EBENE01
 62
     4
 10
821.883
 20
-115.382
 30
0.0
 70
    40
  0
VERTEX
  5
1D5
  8
EBENE01
 62
     4
 10
821.883
 20
-115.382
 30
0.0
 70
    48
  0
VERTEX
  5
1D6
  8
EBENE01
 62
     4
 10
821.507
 20
-115.602
 30
0.0
 70
    40
  0
VERTEX
  5
1D7
  8
EBENE01
 62
     4
 10
821.507
 20
-115.602
 30
0.0
 70
    48
  0
VERTEX
  5
1D8
  8
EBENE01
 62
     4
 10
821.507
 20
-115.602
 30
0.0
 70
    40
  0
VERTEX
  5
1D9
  8
EBENE01
 62
     4
 10
821.507
 20
-115.602
 30
0.0
 70
    48
  0
VERTEX
  5
1DA
  8
EBENE01
 62
     4
 10
821.100
 20
-115.884
 30
0.0
 70
    40
  0
VERTEX
  5
1DB
  8
EBENE01
 62
     4
 10
821.100
 20
-115.884
 30
0.0
 70
    48
  0
VERTEX
  5
1DC
  8
EBENE01
 62
     4
 10
820.755
 20
-116.197
 30
0.0
 70
    40
  0
VERTEX
  5
1DD
  8
EBENE01
 62
     4
 10
820.755
 20
-116.197
 30
0.0
 70
    48
  0
VERTEX
  5
1DE
  8
EBENE01
 62
     4
 10
820.755
 20
-116.197
 30
0.0
 70
    40
  0
VERTEX
  5
1DF
  8
EBENE01
 62
     4
 10
820.755
 20
-116.197
 30
0.0
 70
    48
  0
VERTEX
  5
1E0
  8
EBENE01
 62
     4
 10
820.473
 20
-116.511
 30
0.0
 70
    40
  0
VERTEX
  5
1E1
  8
EBENE01
 62
     4
 10
820.473
 20
-116.511
 30
0.0
 70
    48
  0
VERTEX
  5
1E2
  8
EBENE01
 62
     4
 10
820.254
 20
-116.855
 30
0.0
 70
    40
  0
VERTEX
  5
1E3
  8
EBENE01
 62
     4
 10
820.254
 20
-116.855
 30
0.0
 70
    48
  0
VERTEX
  5
1E4
  8
EBENE01
 62
     4
 10
820.254
 20
-116.855
 30
0.0
 70
    40
  0
VERTEX
  5
1E5
  8
EBENE01
 62
     4
 10
820.254
 20
-116.855
 30
0.0
 70
    48
  0
VERTEX
  5
1E6
  8
EBENE01
 62
     4
 10
820.066
 20
-117.231
 30
0.0
 70
    40
  0
VERTEX
  5
1E7
  8
EBENE01
 62
     4
 10
820.066
 20
-117.231
 30
0.0
 70
    48
  0
VERTEX
  5
1E8
  8
EBENE01
 62
     4
 10
819.878
 20
-117.608
 30
0.0
 70
    40
  0
VERTEX
  5
1E9
  8
EBENE01
 62
     4
 10
819.878
 20
-117.608
 30
0.0
 70
    48
  0
VERTEX
  5
1EA
  8
EBENE01
 62
     4
 10
819.878
 20
-117.608
 30
0.0
 70
    40
  0
VERTEX
  5
1EB
  8
EBENE01
 62
     4
 10
819.878
 20
-117.608
 30
0.0
 70
    48
  0
VERTEX
  5
1EC
  8
EBENE01
 62
     4
 10
819.752
 20
-117.984
 30
0.0
 70
    40
  0
VERTEX
  5
1ED
  8
EBENE01
 62
     4
 10
819.752
 20
-117.984
 30
0.0
 70
    48
  0
VERTEX
  5
1EE
  8
EBENE01
 62
     4
 10
819.658
 20
-118.391
 30
0.0
 70
    40
  0
VERTEX
  5
1EF
  8
EBENE01
 62
     4
 10
819.658
 20
-118.391
 30
0.0
 70
    48
  0
VERTEX
  5
1F0
  8
EBENE01
 62
     4
 10
819.658
 20
-118.391
 30
0.0
 70
    40
  0
VERTEX
  5
1F1
  8
EBENE01
 62
     4
 10
819.658
 20
-118.391
 30
0.0
 70
    48
  0
VERTEX
  5
1F2
  8
EBENE01
 62
     4
 10
819.596
 20
-118.767
 30
0.0
 70
    40
  0
VERTEX
  5
1F3
  8
EBENE01
 62
     4
 10
819.596
 20
-118.767
 30
0.0
 70
    48
  0
VERTEX
  5
1F4
  8
EBENE01
 62
     4
 10
819.564
 20
-119.174
 30
0.0
 70
    40
  0
VERTEX
  5
1F5
  8
EBENE01
 62
     4
 10
819.564
 20
-119.174
 30
0.0
 70
    48
  0
VERTEX
  5
1F6
  8
EBENE01
 62
     4
 10
819.564
 20
-119.174
 30
0.0
 70
    40
  0
VERTEX
  5
1F7
  8
EBENE01
 62
     4
 10
819.564
 20
-119.174
 30
0.0
 70
    48
  0
VERTEX
  5
1F8
  8
EBENE01
 62
     4
 10
819.596
 20
-119.551
 30
0.0
 70
    40
  0
VERTEX
  5
1F9
  8
EBENE01
 62
     4
 10
819.596
 20
-119.551
 30
0.0
 70
    48
  0
VERTEX
  5
1FA
  8
EBENE01
 62
     4
 10
819.658
 20
-119.958
 30
0.0
 70
    40
  0
VERTEX
  5
1FB
  8
EBENE01
 62
     4
 10
819.658
 20
-119.958
 30
0.0
 70
    48
  0
VERTEX
  5
1FC
  8
EBENE01
 62
     4
 10
819.658
 20
-119.958
 30
0.0
 70
    40
  0
VERTEX
  5
1FD
  8
EBENE01
 62
     4
 10
819.658
 20
-119.958
 30
0.0
 70
    48
  0
VERTEX
  5
1FE
  8
EBENE01
 62
     4
 10
819.752
 20
-120.334
 30
0.0
 70
    40
  0
VERTEX
  5
1FF
  8
EBENE01
 62
     4
 10
819.752
 20
-120.334
 30
0.0
 70
    48
  0
VERTEX
  5
200
  8
EBENE01
 62
     4
 10
819.878
 20
-120.741
 30
0.0
 70
    40
  0
VERTEX
  5
201
  8
EBENE01
 62
     4
 10
819.878
 20
-120.741
 30
0.0
 70
    48
  0
VERTEX
  5
202
  8
EBENE01
 62
     4
 10
819.878
 20
-120.741
 30
0.0
 70
    40
  0
VERTEX
  5
203
  8
EBENE01
 62
     4
 10
819.878
 20
-120.741
 30
0.0
 70
    48
  0
VERTEX
  5
204
  8
EBENE01
 62
     4
 10
820.066
 20
-121.117
 30
0.0
 70
    40
  0
VERTEX
  5
205
  8
EBENE01
 62
     4
 10
820.066
 20
-121.117
 30
0.0
 70
    48
  0
VERTEX
  5
206
  8
EBENE01
 62
     4
 10
820.285
 20
-121.525
 30
0.0
 70
    40
  0
VERTEX
  5
207
  8
EBENE01
 62
     4
 10
820.285
 20
-121.525
 30
0.0
 70
    48
  0
VERTEX
  5
208
  8
EBENE01
 62
     4
 10
820.285
 20
-121.525
 30
0.0
 70
    40
  0
VERTEX
  5
209
  8
EBENE01
 62
     4
 10
820.285
 20
-121.525
 30
0.0
 70
    48
  0
VERTEX
  5
20A
  8
EBENE01
 62
     4
 10
820.536
 20
-121.901
 30
0.0
 70
    40
  0
VERTEX
  5
20B
  8
EBENE01
 62
     4
 10
820.536
 20
-121.901
 30
0.0
 70
    48
  0
VERTEX
  5
20C
  8
EBENE01
 62
     4
 10
820.818
 20
-122.246
 30
0.0
 70
    40
  0
VERTEX
  5
20D
  8
EBENE01
 62
     4
 10
820.818
 20
-122.246
 30
0.0
 70
    48
  0
VERTEX
  5
20E
  8
EBENE01
 62
     4
 10
820.818
 20
-122.246
 30
0.0
 70
    40
  0
VERTEX
  5
20F
  8
EBENE01
 62
     4
 10
820.818
 20
-122.246
 30
0.0
 70
    48
  0
VERTEX
  5
210
  8
EBENE01
 62
     4
 10
821.162
 20
-122.590
 30
0.0
 70
    40
  0
VERTEX
  5
211
  8
EBENE01
 62
     4
 10
821.162
 20
-122.590
 30
0.0
 70
    48
  0
VERTEX
  5
212
  8
EBENE01
 62
     4
 10
821.507
 20
-122.872
 30
0.0
 70
    40
  0
VERTEX
  5
213
  8
EBENE01
 62
     4
 10
821.507
 20
-122.872
 30
0.0
 70
    48
  0
VERTEX
  5
214
  8
EBENE01
 62
     4
 10
821.507
 20
-122.872
 30
0.0
 70
    40
  0
VERTEX
  5
215
  8
EBENE01
 62
     4
 10
821.507
 20
-122.872
 30
0.0
 70
    48
  0
VERTEX
  5
216
  8
EBENE01
 62
     4
 10
821.883
 20
-123.123
 30
0.0
 70
    40
  0
VERTEX
  5
217
  8
EBENE01
 62
     4
 10
821.883
 20
-123.123
 30
0.0
 70
    48
  0
VERTEX
  5
218
  8
EBENE01
 62
     4
 10
822.291
 20
-123.343
 30
0.0
 70
    40
  0
VERTEX
  5
219
  8
EBENE01
 62
     4
 10
822.291
 20
-123.343
 30
0.0
 70
    48
  0
VERTEX
  5
21A
  8
EBENE01
 62
     4
 10
822.291
 20
-123.343
 30
0.0
 70
    40
  0
VERTEX
  5
21B
  8
EBENE01
 62
     4
 10
822.291
 20
-123.343
 30
0.0
 70
    48
  0
VERTEX
  5
21C
  8
EBENE01
 62
     4
 10
822.667
 20
-123.562
 30
0.0
 70
    40
  0
VERTEX
  5
21D
  8
EBENE01
 62
     4
 10
822.667
 20
-123.562
 30
0.0
 70
    48
  0
VERTEX
  5
21E
  8
EBENE01
 62
     4
 10
823.074
 20
-123.750
 30
0.0
 70
    40
  0
VERTEX
  5
21F
  8
EBENE01
 62
     4
 10
823.074
 20
-123.750
 30
0.0
 70
    48
  0
VERTEX
  5
220
  8
EBENE01
 62
     4
 10
823.074
 20
-123.750
 30
0.0
 70
    40
  0
VERTEX
  5
221
  8
EBENE01
 62
     4
 10
823.074
 20
-123.750
 30
0.0
 70
    48
  0
VERTEX
  5
222
  8
EBENE01
 62
     4
 10
823.450
 20
-123.938
 30
0.0
 70
    40
  0
VERTEX
  5
223
  8
EBENE01
 62
     4
 10
823.450
 20
-123.938
 30
0.0
 70
    48
  0
VERTEX
  5
224
  8
EBENE01
 62
     4
 10
823.858
 20
-124.095
 30
0.0
 70
    40
  0
VERTEX
  5
225
  8
EBENE01
 62
     4
 10
823.858
 20
-124.095
 30
0.0
 70
    48
  0
VERTEX
  5
226
  8
EBENE01
 62
     4
 10
823.858
 20
-124.095
 30
0.0
 70
    40
  0
VERTEX
  5
227
  8
EBENE01
 62
     4
 10
823.858
 20
-124.095
 30
0.0
 70
    48
  0
VERTEX
  5
228
  8
EBENE01
 62
     4
 10
824.234
 20
-124.283
 30
0.0
 70
    40
  0
VERTEX
  5
229
  8
EBENE01
 62
     4
 10
824.234
 20
-124.283
 30
0.0
 70
    48
  0
VERTEX
  5
22A
  8
EBENE01
 62
     4
 10
824.641
 20
-124.471
 30
0.0
 70
    40
  0
VERTEX
  5
22B
  8
EBENE01
 62
     4
 10
824.641
 20
-124.471
 30
0.0
 70
    48
  0
VERTEX
  5
22C
  8
EBENE01
 62
     4
 10
824.641
 20
-124.471
 30
0.0
 70
    40
  0
VERTEX
  5
22D
  8
EBENE01
 62
     4
 10
824.641
 20
-124.471
 30
0.0
 70
    48
  0
VERTEX
  5
22E
  8
EBENE01
 62
     4
 10
825.017
 20
-124.627
 30
0.0
 70
    40
  0
VERTEX
  5
22F
  8
EBENE01
 62
     4
 10
825.017
 20
-124.627
 30
0.0
 70
    48
  0
VERTEX
  5
230
  8
EBENE01
 62
     4
 10
825.425
 20
-124.815
 30
0.0
 70
    40
  0
VERTEX
  5
231
  8
EBENE01
 62
     4
 10
825.425
 20
-124.815
 30
0.0
 70
    48
  0
VERTEX
  5
232
  8
EBENE01
 62
     4
 10
825.425
 20
-124.815
 30
0.0
 70
    40
  0
VERTEX
  5
233
  8
EBENE01
 62
     4
 10
825.425
 20
-124.815
 30
0.0
 70
    48
  0
VERTEX
  5
234
  8
EBENE01
 62
     4
 10
825.801
 20
-124.972
 30
0.0
 70
    40
  0
VERTEX
  5
235
  8
EBENE01
 62
     4
 10
825.801
 20
-124.972
 30
0.0
 70
    48
  0
VERTEX
  5
236
  8
EBENE01
 62
     4
 10
826.208
 20
-125.160
 30
0.0
 70
    40
  0
VERTEX
  5
237
  8
EBENE01
 62
     4
 10
826.208
 20
-125.160
 30
0.0
 70
    48
  0
VERTEX
  5
238
  8
EBENE01
 62
     4
 10
826.208
 20
-125.160
 30
0.0
 70
    40
  0
VERTEX
  5
239
  8
EBENE01
 62
     4
 10
826.208
 20
-125.160
 30
0.0
 70
    48
  0
VERTEX
  5
23A
  8
EBENE01
 62
     4
 10
826.584
 20
-125.348
 30
0.0
 70
    40
  0
VERTEX
  5
23B
  8
EBENE01
 62
     4
 10
826.584
 20
-125.348
 30
0.0
 70
    48
  0
VERTEX
  5
23C
  8
EBENE01
 62
     4
 10
826.897
 20
-125.568
 30
0.0
 70
    40
  0
VERTEX
  5
23D
  8
EBENE01
 62
     4
 10
826.897
 20
-125.568
 30
0.0
 70
    48
  0
VERTEX
  5
23E
  8
EBENE01
 62
     4
 10
826.897
 20
-125.568
 30
0.0
 70
    40
  0
VERTEX
  5
23F
  8
EBENE01
 62
     4
 10
826.897
 20
-125.568
 30
0.0
 70
    48
  0
VERTEX
  5
240
  8
EBENE01
 62
     4
 10
827.086
 20
-125.724
 30
0.0
 70
    40
  0
VERTEX
  5
241
  8
EBENE01
 62
     4
 10
827.086
 20
-125.724
 30
0.0
 70
    48
  0
VERTEX
  5
242
  8
EBENE01
 62
     4
 10
827.211
 20
-125.850
 30
0.0
 70
    40
  0
VERTEX
  5
243
  8
EBENE01
 62
     4
 10
827.211
 20
-125.850
 30
0.0
 70
    48
  0
VERTEX
  5
244
  8
EBENE01
 62
     4
 10
827.211
 20
-125.850
 30
0.0
 70
    40
  0
VERTEX
  5
245
  8
EBENE01
 62
     4
 10
827.211
 20
-125.850
 30
0.0
 70
    48
  0
VERTEX
  5
246
  8
EBENE01
 62
     4
 10
827.305
 20
-126.038
 30
0.0
 70
    40
  0
VERTEX
  5
247
  8
EBENE01
 62
     4
 10
827.305
 20
-126.038
 30
0.0
 70
    48
  0
VERTEX
  5
248
  8
EBENE01
 62
     4
 10
827.399
 20
-126.226
 30
0.0
 70
    40
  0
VERTEX
  5
249
  8
EBENE01
 62
     4
 10
827.399
 20
-126.226
 30
0.0
 70
    48
  0
VERTEX
  5
24A
  8
EBENE01
 62
     4
 10
827.399
 20
-126.226
 30
0.0
 70
    40
  0
VERTEX
  5
24B
  8
EBENE01
 62
     4
 10
827.399
 20
-126.226
 30
0.0
 70
    48
  0
VERTEX
  5
24C
  8
EBENE01
 62
     4
 10
827.430
 20
-126.414
 30
0.0
 70
    40
  0
VERTEX
  5
24D
  8
EBENE01
 62
     4
 10
827.430
 20
-126.414
 30
0.0
 70
    48
  0
VERTEX
  5
24E
  8
EBENE01
 62
     4
 10
827.430
 20
-126.602
 30
0.0
 70
    40
  0
VERTEX
  5
24F
  8
EBENE01
 62
     4
 10
827.430
 20
-126.602
 30
0.0
 70
    48
  0
VERTEX
  5
250
  8
EBENE01
 62
     4
 10
827.430
 20
-126.602
 30
0.0
 70
    40
  0
VERTEX
  5
251
  8
EBENE01
 62
     4
 10
827.430
 20
-126.602
 30
0.0
 70
    48
  0
VERTEX
  5
252
  8
EBENE01
 62
     4
 10
827.399
 20
-126.821
 30
0.0
 70
    40
  0
VERTEX
  5
253
  8
EBENE01
 62
     4
 10
827.399
 20
-126.821
 30
0.0
 70
    48
  0
VERTEX
  5
254
  8
EBENE01
 62
     4
 10
827.336
 20
-127.009
 30
0.0
 70
    40
  0
VERTEX
  5
255
  8
EBENE01
 62
     4
 10
827.336
 20
-127.009
 30
0.0
 70
    48
  0
VERTEX
  5
256
  8
EBENE01
 62
     4
 10
827.336
 20
-127.009
 30
0.0
 70
    40
  0
VERTEX
  5
257
  8
EBENE01
 62
     4
 10
827.336
 20
-127.009
 30
0.0
 70
    48
  0
VERTEX
  5
258
  8
EBENE01
 62
     4
 10
827.180
 20
-127.197
 30
0.0
 70
    40
  0
VERTEX
  5
259
  8
EBENE01
 62
     4
 10
827.180
 20
-127.197
 30
0.0
 70
    48
  0
VERTEX
  5
25A
  8
EBENE01
 62
     4
 10
826.929
 20
-127.385
 30
0.0
 70
    40
  0
VERTEX
  5
25B
  8
EBENE01
 62
     4
 10
826.929
 20
-127.385
 30
0.0
 70
    48
  0
VERTEX
  5
25C
  8
EBENE01
 62
     4
 10
826.929
 20
-127.385
 30
0.0
 70
    40
  0
VERTEX
  5
25D
  8
EBENE01
 62
     4
 10
826.929
 20
-127.385
 30
0.0
 70
    48
  0
VERTEX
  5
25E
  8
EBENE01
 62
     4
 10
826.584
 20
-127.542
 30
0.0
 70
    40
  0
VERTEX
  5
25F
  8
EBENE01
 62
     4
 10
826.584
 20
-127.542
 30
0.0
 70
    48
  0
VERTEX
  5
260
  8
EBENE01
 62
     4
 10
826.208
 20
-127.636
 30
0.0
 70
    40
  0
VERTEX
  5
261
  8
EBENE01
 62
     4
 10
826.208
 20
-127.636
 30
0.0
 70
    48
  0
VERTEX
  5
262
  8
EBENE01
 62
     4
 10
826.208
 20
-127.636
 30
0.0
 70
    40
  0
VERTEX
  5
263
  8
EBENE01
 62
     4
 10
826.208
 20
-127.636
 30
0.0
 70
    48
  0
VERTEX
  5
264
  8
EBENE01
 62
     4
 10
825.801
 20
-127.730
 30
0.0
 70
    40
  0
VERTEX
  5
265
  8
EBENE01
 62
     4
 10
825.801
 20
-127.730
 30
0.0
 70
    48
  0
VERTEX
  5
266
  8
EBENE01
 62
     4
 10
825.425
 20
-127.793
 30
0.0
 70
    40
  0
VERTEX
  5
267
  8
EBENE01
 62
     4
 10
825.425
 20
-127.793
 30
0.0
 70
    48
  0
VERTEX
  5
268
  8
EBENE01
 62
     4
 10
825.425
 20
-127.793
 30
0.0
 70
    40
  0
VERTEX
  5
269
  8
EBENE01
 62
     4
 10
825.425
 20
-127.793
 30
0.0
 70
    48
  0
VERTEX
  5
26A
  8
EBENE01
 62
     4
 10
825.017
 20
-127.793
 30
0.0
 70
    40
  0
VERTEX
  5
26B
  8
EBENE01
 62
     4
 10
825.017
 20
-127.793
 30
0.0
 70
    48
  0
VERTEX
  5
26C
  8
EBENE01
 62
     4
 10
824.641
 20
-127.824
 30
0.0
 70
    40
  0
VERTEX
  5
26D
  8
EBENE01
 62
     4
 10
824.641
 20
-127.824
 30
0.0
 70
    48
  0
VERTEX
  5
26E
  8
EBENE01
 62
     4
 10
824.641
 20
-127.824
 30
0.0
 70
    40
  0
VERTEX
  5
26F
  8
EBENE01
 62
     4
 10
824.641
 20
-127.824
 30
0.0
 70
    48
  0
VERTEX
  5
270
  8
EBENE01
 62
     4
 10
824.234
 20
-127.824
 30
0.0
 70
    40
  0
VERTEX
  5
271
  8
EBENE01
 62
     4
 10
824.234
 20
-127.824
 30
0.0
 70
    48
  0
VERTEX
  5
272
  8
EBENE01
 62
     4
 10
823.858
 20
-127.793
 30
0.0
 70
    40
  0
VERTEX
  5
273
  8
EBENE01
 62
     4
 10
823.858
 20
-127.793
 30
0.0
 70
    48
  0
VERTEX
  5
274
  8
EBENE01
 62
     4
 10
823.858
 20
-127.793
 30
0.0
 70
    40
  0
VERTEX
  5
275
  8
EBENE01
 62
     4
 10
823.858
 20
-127.793
 30
0.0
 70
    48
  0
VERTEX
  5
276
  8
EBENE01
 62
     4
 10
823.450
 20
-127.761
 30
0.0
 70
    40
  0
VERTEX
  5
277
  8
EBENE01
 62
     4
 10
823.450
 20
-127.761
 30
0.0
 70
    48
  0
VERTEX
  5
278
  8
EBENE01
 62
     4
 10
823.074
 20
-127.699
 30
0.0
 70
    40
  0
VERTEX
  5
279
  8
EBENE01
 62
     4
 10
823.074
 20
-127.699
 30
0.0
 70
    48
  0
VERTEX
  5
27A
  8
EBENE01
 62
     4
 10
823.074
 20
-127.699
 30
0.0
 70
    40
  0
VERTEX
  5
27B
  8
EBENE01
 62
     4
 10
823.074
 20
-127.699
 30
0.0
 70
    48
  0
VERTEX
  5
27C
  8
EBENE01
 62
     4
 10
822.667
 20
-127.667
 30
0.0
 70
    40
  0
VERTEX
  5
27D
  8
EBENE01
 62
     4
 10
822.667
 20
-127.667
 30
0.0
 70
    48
  0
VERTEX
  5
27E
  8
EBENE01
 62
     4
 10
822.291
 20
-127.636
 30
0.0
 70
    40
  0
VERTEX
  5
27F
  8
EBENE01
 62
     4
 10
822.291
 20
-127.636
 30
0.0
 70
    48
  0
VERTEX
  5
280
  8
EBENE01
 62
     4
 10
822.291
 20
-127.636
 30
0.0
 70
    40
  0
VERTEX
  5
281
  8
EBENE01
 62
     4
 10
822.291
 20
-127.636
 30
0.0
 70
    48
  0
VERTEX
  5
282
  8
EBENE01
 62
     4
 10
821.883
 20
-127.542
 30
0.0
 70
    40
  0
VERTEX
  5
283
  8
EBENE01
 62
     4
 10
821.883
 20
-127.542
 30
0.0
 70
    48
  0
VERTEX
  5
284
  8
EBENE01
 62
     4
 10
821.445
 20
-127.448
 30
0.0
 70
    40
  0
VERTEX
  5
285
  8
EBENE01
 62
     4
 10
821.445
 20
-127.448
 30
0.0
 70
    48
  0
VERTEX
  5
286
  8
EBENE01
 62
     4
 10
821.445
 20
-127.448
 30
0.0
 70
    40
  0
VERTEX
  5
287
  8
EBENE01
 62
     4
 10
821.445
 20
-127.448
 30
0.0
 70
    48
  0
VERTEX
  5
288
  8
EBENE01
 62
     4
 10
820.849
 20
-127.323
 30
0.0
 70
    40
  0
VERTEX
  5
289
  8
EBENE01
 62
     4
 10
820.849
 20
-127.323
 30
0.0
 70
    48
  0
VERTEX
  5
28A
  8
EBENE01
 62
     4
 10
819.940
 20
-127.072
 30
0.0
 70
    40
  0
VERTEX
  5
28B
  8
EBENE01
 62
     4
 10
819.940
 20
-127.072
 30
0.0
 70
    48
  0
SEQEND
  5
28C
  8
EBENE01
 62
     4
  0
POLYLINE
  5
28D
  8
EBENE01
 62
     4
 66
     1
 10
-42.994
 20
-179.842
 30
0.0
 70
    12
 75
     6
  0
VERTEX
  5
28E
  8
EBENE01
 62
     4
 10
819.940
 20
-130.206
 30
0.0
 70
    40
  0
VERTEX
  5
28F
  8
EBENE01
 62
     4
 10
819.940
 20
-130.206
 30
0.0
 70
    48
  0
VERTEX
  5
290
  8
EBENE01
 62
     4
 10
820.849
 20
-130.394
 30
0.0
 70
    40
  0
VERTEX
  5
291
  8
EBENE01
 62
     4
 10
820.849
 20
-130.394
 30
0.0
 70
    48
  0
VERTEX
  5
292
  8
EBENE01
 62
     4
 10
821.445
 20
-130.519
 30
0.0
 70
    40
  0
VERTEX
  5
293
  8
EBENE01
 62
     4
 10
821.445
 20
-130.519
 30
0.0
 70
    48
  0
VERTEX
  5
294
  8
EBENE01
 62
     4
 10
821.445
 20
-130.519
 30
0.0
 70
    40
  0
VERTEX
  5
295
  8
EBENE01
 62
     4
 10
821.445
 20
-130.519
 30
0.0
 70
    48
  0
VERTEX
  5
296
  8
EBENE01
 62
     4
 10
821.883
 20
-130.582
 30
0.0
 70
    40
  0
VERTEX
  5
297
  8
EBENE01
 62
     4
 10
821.883
 20
-130.582
 30
0.0
 70
    48
  0
VERTEX
  5
298
  8
EBENE01
 62
     4
 10
822.291
 20
-130.644
 30
0.0
 70
    40
  0
VERTEX
  5
299
  8
EBENE01
 62
     4
 10
822.291
 20
-130.644
 30
0.0
 70
    48
  0
VERTEX
  5
29A
  8
EBENE01
 62
     4
 10
822.291
 20
-130.644
 30
0.0
 70
    40
  0
VERTEX
  5
29B
  8
EBENE01
 62
     4
 10
822.291
 20
-130.644
 30
0.0
 70
    48
  0
VERTEX
  5
29C
  8
EBENE01
 62
     4
 10
822.667
 20
-130.707
 30
0.0
 70
    40
  0
VERTEX
  5
29D
  8
EBENE01
 62
     4
 10
822.667
 20
-130.707
 30
0.0
 70
    48
  0
VERTEX
  5
29E
  8
EBENE01
 62
     4
 10
823.074
 20
-130.770
 30
0.0
 70
    40
  0
VERTEX
  5
29F
  8
EBENE01
 62
     4
 10
823.074
 20
-130.770
 30
0.0
 70
    48
  0
VERTEX
  5
2A0
  8
EBENE01
 62
     4
 10
823.074
 20
-130.770
 30
0.0
 70
    40
  0
VERTEX
  5
2A1
  8
EBENE01
 62
     4
 10
823.074
 20
-130.770
 30
0.0
 70
    48
  0
VERTEX
  5
2A2
  8
EBENE01
 62
     4
 10
823.450
 20
-130.801
 30
0.0
 70
    40
  0
VERTEX
  5
2A3
  8
EBENE01
 62
     4
 10
823.450
 20
-130.801
 30
0.0
 70
    48
  0
VERTEX
  5
2A4
  8
EBENE01
 62
     4
 10
823.858
 20
-130.801
 30
0.0
 70
    40
  0
VERTEX
  5
2A5
  8
EBENE01
 62
     4
 10
823.858
 20
-130.801
 30
0.0
 70
    48
  0
VERTEX
  5
2A6
  8
EBENE01
 62
     4
 10
823.858
 20
-130.801
 30
0.0
 70
    40
  0
VERTEX
  5
2A7
  8
EBENE01
 62
     4
 10
823.858
 20
-130.801
 30
0.0
 70
    48
  0
VERTEX
  5
2A8
  8
EBENE01
 62
     4
 10
824.234
 20
-130.833
 30
0.0
 70
    40
  0
VERTEX
  5
2A9
  8
EBENE01
 62
     4
 10
824.234
 20
-130.833
 30
0.0
 70
    48
  0
VERTEX
  5
2AA
  8
EBENE01
 62
     4
 10
824.641
 20
-130.833
 30
0.0
 70
    40
  0
VERTEX
  5
2AB
  8
EBENE01
 62
     4
 10
824.641
 20
-130.833
 30
0.0
 70
    48
  0
VERTEX
  5
2AC
  8
EBENE01
 62
     4
 10
824.641
 20
-130.833
 30
0.0
 70
    40
  0
VERTEX
  5
2AD
  8
EBENE01
 62
     4
 10
824.641
 20
-130.833
 30
0.0
 70
    48
  0
VERTEX
  5
2AE
  8
EBENE01
 62
     4
 10
825.017
 20
-130.833
 30
0.0
 70
    40
  0
VERTEX
  5
2AF
  8
EBENE01
 62
     4
 10
825.017
 20
-130.833
 30
0.0
 70
    48
  0
VERTEX
  5
2B0
  8
EBENE01
 62
     4
 10
825.425
 20
-130.833
 30
0.0
 70
    40
  0
VERTEX
  5
2B1
  8
EBENE01
 62
     4
 10
825.425
 20
-130.833
 30
0.0
 70
    48
  0
VERTEX
  5
2B2
  8
EBENE01
 62
     4
 10
825.425
 20
-130.833
 30
0.0
 70
    40
  0
VERTEX
  5
2B3
  8
EBENE01
 62
     4
 10
825.425
 20
-130.833
 30
0.0
 70
    48
  0
VERTEX
  5
2B4
  8
EBENE01
 62
     4
 10
825.801
 20
-130.833
 30
0.0
 70
    40
  0
VERTEX
  5
2B5
  8
EBENE01
 62
     4
 10
825.801
 20
-130.833
 30
0.0
 70
    48
  0
VERTEX
  5
2B6
  8
EBENE01
 62
     4
 10
826.208
 20
-130.801
 30
0.0
 70
    40
  0
VERTEX
  5
2B7
  8
EBENE01
 62
     4
 10
826.208
 20
-130.801
 30
0.0
 70
    48
  0
VERTEX
  5
2B8
  8
EBENE01
 62
     4
 10
826.208
 20
-130.801
 30
0.0
 70
    40
  0
VERTEX
  5
2B9
  8
EBENE01
 62
     4
 10
826.208
 20
-130.801
 30
0.0
 70
    48
  0
VERTEX
  5
2BA
  8
EBENE01
 62
     4
 10
826.584
 20
-130.770
 30
0.0
 70
    40
  0
VERTEX
  5
2BB
  8
EBENE01
 62
     4
 10
826.584
 20
-130.770
 30
0.0
 70
    48
  0
VERTEX
  5
2BC
  8
EBENE01
 62
     4
 10
826.992
 20
-130.707
 30
0.0
 70
    40
  0
VERTEX
  5
2BD
  8
EBENE01
 62
     4
 10
826.992
 20
-130.707
 30
0.0
 70
    48
  0
VERTEX
  5
2BE
  8
EBENE01
 62
     4
 10
826.992
 20
-130.707
 30
0.0
 70
    40
  0
VERTEX
  5
2BF
  8
EBENE01
 62
     4
 10
826.992
 20
-130.707
 30
0.0
 70
    48
  0
VERTEX
  5
2C0
  8
EBENE01
 62
     4
 10
827.368
 20
-130.644
 30
0.0
 70
    40
  0
VERTEX
  5
2C1
  8
EBENE01
 62
     4
 10
827.368
 20
-130.644
 30
0.0
 70
    48
  0
VERTEX
  5
2C2
  8
EBENE01
 62
     4
 10
827.775
 20
-130.550
 30
0.0
 70
    40
  0
VERTEX
  5
2C3
  8
EBENE01
 62
     4
 10
827.775
 20
-130.550
 30
0.0
 70
    48
  0
VERTEX
  5
2C4
  8
EBENE01
 62
     4
 10
827.775
 20
-130.550
 30
0.0
 70
    40
  0
VERTEX
  5
2C5
  8
EBENE01
 62
     4
 10
827.775
 20
-130.550
 30
0.0
 70
    48
  0
VERTEX
  5
2C6
  8
EBENE01
 62
     4
 10
828.151
 20
-130.456
 30
0.0
 70
    40
  0
VERTEX
  5
2C7
  8
EBENE01
 62
     4
 10
828.151
 20
-130.456
 30
0.0
 70
    48
  0
VERTEX
  5
2C8
  8
EBENE01
 62
     4
 10
828.558
 20
-130.362
 30
0.0
 70
    40
  0
VERTEX
  5
2C9
  8
EBENE01
 62
     4
 10
828.558
 20
-130.362
 30
0.0
 70
    48
  0
VERTEX
  5
2CA
  8
EBENE01
 62
     4
 10
828.558
 20
-130.362
 30
0.0
 70
    40
  0
VERTEX
  5
2CB
  8
EBENE01
 62
     4
 10
828.558
 20
-130.362
 30
0.0
 70
    48
  0
VERTEX
  5
2CC
  8
EBENE01
 62
     4
 10
828.935
 20
-130.206
 30
0.0
 70
    40
  0
VERTEX
  5
2CD
  8
EBENE01
 62
     4
 10
828.935
 20
-130.206
 30
0.0
 70
    48
  0
VERTEX
  5
2CE
  8
EBENE01
 62
     4
 10
829.342
 20
-130.049
 30
0.0
 70
    40
  0
VERTEX
  5
2CF
  8
EBENE01
 62
     4
 10
829.342
 20
-130.049
 30
0.0
 70
    48
  0
VERTEX
  5
2D0
  8
EBENE01
 62
     4
 10
829.342
 20
-130.049
 30
0.0
 70
    40
  0
VERTEX
  5
2D1
  8
EBENE01
 62
     4
 10
829.342
 20
-130.049
 30
0.0
 70
    48
  0
VERTEX
  5
2D2
  8
EBENE01
 62
     4
 10
829.718
 20
-129.830
 30
0.0
 70
    40
  0
VERTEX
  5
2D3
  8
EBENE01
 62
     4
 10
829.718
 20
-129.830
 30
0.0
 70
    48
  0
VERTEX
  5
2D4
  8
EBENE01
 62
     4
 10
830.125
 20
-129.548
 30
0.0
 70
    40
  0
VERTEX
  5
2D5
  8
EBENE01
 62
     4
 10
830.125
 20
-129.548
 30
0.0
 70
    48
  0
VERTEX
  5
2D6
  8
EBENE01
 62
     4
 10
830.125
 20
-129.548
 30
0.0
 70
    40
  0
VERTEX
  5
2D7
  8
EBENE01
 62
     4
 10
830.125
 20
-129.548
 30
0.0
 70
    48
  0
VERTEX
  5
2D8
  8
EBENE01
 62
     4
 10
830.501
 20
-129.234
 30
0.0
 70
    40
  0
VERTEX
  5
2D9
  8
EBENE01
 62
     4
 10
830.501
 20
-129.234
 30
0.0
 70
    48
  0
VERTEX
  5
2DA
  8
EBENE01
 62
     4
 10
830.846
 20
-128.890
 30
0.0
 70
    40
  0
VERTEX
  5
2DB
  8
EBENE01
 62
     4
 10
830.846
 20
-128.890
 30
0.0
 70
    48
  0
VERTEX
  5
2DC
  8
EBENE01
 62
     4
 10
830.846
 20
-128.890
 30
0.0
 70
    40
  0
VERTEX
  5
2DD
  8
EBENE01
 62
     4
 10
830.846
 20
-128.890
 30
0.0
 70
    48
  0
VERTEX
  5
2DE
  8
EBENE01
 62
     4
 10
831.160
 20
-128.482
 30
0.0
 70
    40
  0
VERTEX
  5
2DF
  8
EBENE01
 62
     4
 10
831.160
 20
-128.482
 30
0.0
 70
    48
  0
VERTEX
  5
2E0
  8
EBENE01
 62
     4
 10
831.379
 20
-128.106
 30
0.0
 70
    40
  0
VERTEX
  5
2E1
  8
EBENE01
 62
     4
 10
831.379
 20
-128.106
 30
0.0
 70
    48
  0
VERTEX
  5
2E2
  8
EBENE01
 62
     4
 10
831.379
 20
-128.106
 30
0.0
 70
    40
  0
VERTEX
  5
2E3
  8
EBENE01
 62
     4
 10
831.379
 20
-128.106
 30
0.0
 70
    48
  0
VERTEX
  5
2E4
  8
EBENE01
 62
     4
 10
831.567
 20
-127.699
 30
0.0
 70
    40
  0
VERTEX
  5
2E5
  8
EBENE01
 62
     4
 10
831.567
 20
-127.699
 30
0.0
 70
    48
  0
VERTEX
  5
2E6
  8
EBENE01
 62
     4
 10
831.724
 20
-127.323
 30
0.0
 70
    40
  0
VERTEX
  5
2E7
  8
EBENE01
 62
     4
 10
831.724
 20
-127.323
 30
0.0
 70
    48
  0
VERTEX
  5
2E8
  8
EBENE01
 62
     4
 10
831.724
 20
-127.323
 30
0.0
 70
    40
  0
VERTEX
  5
2E9
  8
EBENE01
 62
     4
 10
831.724
 20
-127.323
 30
0.0
 70
    48
  0
VERTEX
  5
2EA
  8
EBENE01
 62
     4
 10
831.849
 20
-126.915
 30
0.0
 70
    40
  0
VERTEX
  5
2EB
  8
EBENE01
 62
     4
 10
831.849
 20
-126.915
 30
0.0
 70
    48
  0
VERTEX
  5
2EC
  8
EBENE01
 62
     4
 10
831.943
 20
-126.539
 30
0.0
 70
    40
  0
VERTEX
  5
2ED
  8
EBENE01
 62
     4
 10
831.943
 20
-126.539
 30
0.0
 70
    48
  0
VERTEX
  5
2EE
  8
EBENE01
 62
     4
 10
831.943
 20
-126.539
 30
0.0
 70
    40
  0
VERTEX
  5
2EF
  8
EBENE01
 62
     4
 10
831.943
 20
-126.539
 30
0.0
 70
    48
  0
VERTEX
  5
2F0
  8
EBENE01
 62
     4
 10
831.974
 20
-126.132
 30
0.0
 70
    40
  0
VERTEX
  5
2F1
  8
EBENE01
 62
     4
 10
831.974
 20
-126.132
 30
0.0
 70
    48
  0
VERTEX
  5
2F2
  8
EBENE01
 62
     4
 10
831.974
 20
-125.756
 30
0.0
 70
    40
  0
VERTEX
  5
2F3
  8
EBENE01
 62
     4
 10
831.974
 20
-125.756
 30
0.0
 70
    48
  0
VERTEX
  5
2F4
  8
EBENE01
 62
     4
 10
831.974
 20
-125.756
 30
0.0
 70
    40
  0
VERTEX
  5
2F5
  8
EBENE01
 62
     4
 10
831.974
 20
-125.756
 30
0.0
 70
    48
  0
VERTEX
  5
2F6
  8
EBENE01
 62
     4
 10
831.943
 20
-125.348
 30
0.0
 70
    40
  0
VERTEX
  5
2F7
  8
EBENE01
 62
     4
 10
831.943
 20
-125.348
 30
0.0
 70
    48
  0
VERTEX
  5
2F8
  8
EBENE01
 62
     4
 10
831.880
 20
-124.972
 30
0.0
 70
    40
  0
VERTEX
  5
2F9
  8
EBENE01
 62
     4
 10
831.880
 20
-124.972
 30
0.0
 70
    48
  0
VERTEX
  5
2FA
  8
EBENE01
 62
     4
 10
831.880
 20
-124.972
 30
0.0
 70
    40
  0
VERTEX
  5
2FB
  8
EBENE01
 62
     4
 10
831.880
 20
-124.972
 30
0.0
 70
    48
  0
VERTEX
  5
2FC
  8
EBENE01
 62
     4
 10
831.755
 20
-124.565
 30
0.0
 70
    40
  0
VERTEX
  5
2FD
  8
EBENE01
 62
     4
 10
831.755
 20
-124.565
 30
0.0
 70
    48
  0
VERTEX
  5
2FE
  8
EBENE01
 62
     4
 10
831.598
 20
-124.189
 30
0.0
 70
    40
  0
VERTEX
  5
2FF
  8
EBENE01
 62
     4
 10
831.598
 20
-124.189
 30
0.0
 70
    48
  0
VERTEX
  5
300
  8
EBENE01
 62
     4
 10
831.598
 20
-124.189
 30
0.0
 70
    40
  0
VERTEX
  5
301
  8
EBENE01
 62
     4
 10
831.598
 20
-124.189
 30
0.0
 70
    48
  0
VERTEX
  5
302
  8
EBENE01
 62
     4
 10
831.410
 20
-123.781
 30
0.0
 70
    40
  0
VERTEX
  5
303
  8
EBENE01
 62
     4
 10
831.410
 20
-123.781
 30
0.0
 70
    48
  0
VERTEX
  5
304
  8
EBENE01
 62
     4
 10
831.160
 20
-123.405
 30
0.0
 70
    40
  0
VERTEX
  5
305
  8
EBENE01
 62
     4
 10
831.160
 20
-123.405
 30
0.0
 70
    48
  0
VERTEX
  5
306
  8
EBENE01
 62
     4
 10
831.160
 20
-123.405
 30
0.0
 70
    40
  0
VERTEX
  5
307
  8
EBENE01
 62
     4
 10
831.160
 20
-123.405
 30
0.0
 70
    48
  0
VERTEX
  5
308
  8
EBENE01
 62
     4
 10
830.846
 20
-123.029
 30
0.0
 70
    40
  0
VERTEX
  5
309
  8
EBENE01
 62
     4
 10
830.846
 20
-123.029
 30
0.0
 70
    48
  0
VERTEX
  5
30A
  8
EBENE01
 62
     4
 10
830.501
 20
-122.653
 30
0.0
 70
    40
  0
VERTEX
  5
30B
  8
EBENE01
 62
     4
 10
830.501
 20
-122.653
 30
0.0
 70
    48
  0
VERTEX
  5
30C
  8
EBENE01
 62
     4
 10
830.501
 20
-122.653
 30
0.0
 70
    40
  0
VERTEX
  5
30D
  8
EBENE01
 62
     4
 10
830.501
 20
-122.653
 30
0.0
 70
    48
  0
VERTEX
  5
30E
  8
EBENE01
 62
     4
 10
830.125
 20
-122.308
 30
0.0
 70
    40
  0
VERTEX
  5
30F
  8
EBENE01
 62
     4
 10
830.125
 20
-122.308
 30
0.0
 70
    48
  0
VERTEX
  5
310
  8
EBENE01
 62
     4
 10
829.718
 20
-122.026
 30
0.0
 70
    40
  0
VERTEX
  5
311
  8
EBENE01
 62
     4
 10
829.718
 20
-122.026
 30
0.0
 70
    48
  0
VERTEX
  5
312
  8
EBENE01
 62
     4
 10
829.718
 20
-122.026
 30
0.0
 70
    40
  0
VERTEX
  5
313
  8
EBENE01
 62
     4
 10
829.718
 20
-122.026
 30
0.0
 70
    48
  0
VERTEX
  5
314
  8
EBENE01
 62
     4
 10
829.342
 20
-121.776
 30
0.0
 70
    40
  0
VERTEX
  5
315
  8
EBENE01
 62
     4
 10
829.342
 20
-121.776
 30
0.0
 70
    48
  0
VERTEX
  5
316
  8
EBENE01
 62
     4
 10
828.935
 20
-121.556
 30
0.0
 70
    40
  0
VERTEX
  5
317
  8
EBENE01
 62
     4
 10
828.935
 20
-121.556
 30
0.0
 70
    48
  0
VERTEX
  5
318
  8
EBENE01
 62
     4
 10
828.935
 20
-121.556
 30
0.0
 70
    40
  0
VERTEX
  5
319
  8
EBENE01
 62
     4
 10
828.935
 20
-121.556
 30
0.0
 70
    48
  0
VERTEX
  5
31A
  8
EBENE01
 62
     4
 10
828.558
 20
-121.337
 30
0.0
 70
    40
  0
VERTEX
  5
31B
  8
EBENE01
 62
     4
 10
828.558
 20
-121.337
 30
0.0
 70
    48
  0
VERTEX
  5
31C
  8
EBENE01
 62
     4
 10
828.151
 20
-121.180
 30
0.0
 70
    40
  0
VERTEX
  5
31D
  8
EBENE01
 62
     4
 10
828.151
 20
-121.180
 30
0.0
 70
    48
  0
VERTEX
  5
31E
  8
EBENE01
 62
     4
 10
828.151
 20
-121.180
 30
0.0
 70
    40
  0
VERTEX
  5
31F
  8
EBENE01
 62
     4
 10
828.151
 20
-121.180
 30
0.0
 70
    48
  0
VERTEX
  5
320
  8
EBENE01
 62
     4
 10
827.775
 20
-120.992
 30
0.0
 70
    40
  0
VERTEX
  5
321
  8
EBENE01
 62
     4
 10
827.775
 20
-120.992
 30
0.0
 70
    48
  0
VERTEX
  5
322
  8
EBENE01
 62
     4
 10
827.368
 20
-120.804
 30
0.0
 70
    40
  0
VERTEX
  5
323
  8
EBENE01
 62
     4
 10
827.368
 20
-120.804
 30
0.0
 70
    48
  0
VERTEX
  5
324
  8
EBENE01
 62
     4
 10
827.368
 20
-120.804
 30
0.0
 70
    40
  0
VERTEX
  5
325
  8
EBENE01
 62
     4
 10
827.368
 20
-120.804
 30
0.0
 70
    48
  0
VERTEX
  5
326
  8
EBENE01
 62
     4
 10
826.992
 20
-120.616
 30
0.0
 70
    40
  0
VERTEX
  5
327
  8
EBENE01
 62
     4
 10
826.992
 20
-120.616
 30
0.0
 70
    48
  0
VERTEX
  5
328
  8
EBENE01
 62
     4
 10
826.584
 20
-120.428
 30
0.0
 70
    40
  0
VERTEX
  5
329
  8
EBENE01
 62
     4
 10
826.584
 20
-120.428
 30
0.0
 70
    48
  0
VERTEX
  5
32A
  8
EBENE01
 62
     4
 10
826.584
 20
-120.428
 30
0.0
 70
    40
  0
VERTEX
  5
32B
  8
EBENE01
 62
     4
 10
826.584
 20
-120.428
 30
0.0
 70
    48
  0
VERTEX
  5
32C
  8
EBENE01
 62
     4
 10
826.208
 20
-120.271
 30
0.0
 70
    40
  0
VERTEX
  5
32D
  8
EBENE01
 62
     4
 10
826.208
 20
-120.271
 30
0.0
 70
    48
  0
VERTEX
  5
32E
  8
EBENE01
 62
     4
 10
825.801
 20
-120.115
 30
0.0
 70
    40
  0
VERTEX
  5
32F
  8
EBENE01
 62
     4
 10
825.801
 20
-120.115
 30
0.0
 70
    48
  0
VERTEX
  5
330
  8
EBENE01
 62
     4
 10
825.801
 20
-120.115
 30
0.0
 70
    40
  0
VERTEX
  5
331
  8
EBENE01
 62
     4
 10
825.801
 20
-120.115
 30
0.0
 70
    48
  0
VERTEX
  5
332
  8
EBENE01
 62
     4
 10
825.425
 20
-119.927
 30
0.0
 70
    40
  0
VERTEX
  5
333
  8
EBENE01
 62
     4
 10
825.425
 20
-119.927
 30
0.0
 70
    48
  0
VERTEX
  5
334
  8
EBENE01
 62
     4
 10
825.017
 20
-119.707
 30
0.0
 70
    40
  0
VERTEX
  5
335
  8
EBENE01
 62
     4
 10
825.017
 20
-119.707
 30
0.0
 70
    48
  0
VERTEX
  5
336
  8
EBENE01
 62
     4
 10
825.017
 20
-119.707
 30
0.0
 70
    40
  0
VERTEX
  5
337
  8
EBENE01
 62
     4
 10
825.017
 20
-119.707
 30
0.0
 70
    48
  0
VERTEX
  5
338
  8
EBENE01
 62
     4
 10
824.641
 20
-119.457
 30
0.0
 70
    40
  0
VERTEX
  5
339
  8
EBENE01
 62
     4
 10
824.641
 20
-119.457
 30
0.0
 70
    48
  0
VERTEX
  5
33A
  8
EBENE01
 62
     4
 10
824.328
 20
-119.237
 30
0.0
 70
    40
  0
VERTEX
  5
33B
  8
EBENE01
 62
     4
 10
824.328
 20
-119.237
 30
0.0
 70
    48
  0
VERTEX
  5
33C
  8
EBENE01
 62
     4
 10
824.328
 20
-119.237
 30
0.0
 70
    40
  0
VERTEX
  5
33D
  8
EBENE01
 62
     4
 10
824.328
 20
-119.237
 30
0.0
 70
    48
  0
VERTEX
  5
33E
  8
EBENE01
 62
     4
 10
824.140
 20
-118.986
 30
0.0
 70
    40
  0
VERTEX
  5
33F
  8
EBENE01
 62
     4
 10
824.140
 20
-118.986
 30
0.0
 70
    48
  0
VERTEX
  5
340
  8
EBENE01
 62
     4
 10
824.046
 20
-118.798
 30
0.0
 70
    40
  0
VERTEX
  5
341
  8
EBENE01
 62
     4
 10
824.046
 20
-118.798
 30
0.0
 70
    48
  0
VERTEX
  5
342
  8
EBENE01
 62
     4
 10
824.046
 20
-118.798
 30
0.0
 70
    40
  0
VERTEX
  5
343
  8
EBENE01
 62
     4
 10
824.046
 20
-118.798
 30
0.0
 70
    48
  0
VERTEX
  5
344
  8
EBENE01
 62
     4
 10
824.014
 20
-118.579
 30
0.0
 70
    40
  0
VERTEX
  5
345
  8
EBENE01
 62
     4
 10
824.014
 20
-118.579
 30
0.0
 70
    48
  0
VERTEX
  5
346
  8
EBENE01
 62
     4
 10
824.046
 20
-118.391
 30
0.0
 70
    40
  0
VERTEX
  5
347
  8
EBENE01
 62
     4
 10
824.046
 20
-118.391
 30
0.0
 70
    48
  0
VERTEX
  5
348
  8
EBENE01
 62
     4
 10
824.046
 20
-118.391
 30
0.0
 70
    40
  0
VERTEX
  5
349
  8
EBENE01
 62
     4
 10
824.046
 20
-118.391
 30
0.0
 70
    48
  0
VERTEX
  5
34A
  8
EBENE01
 62
     4
 10
824.108
 20
-118.203
 30
0.0
 70
    40
  0
VERTEX
  5
34B
  8
EBENE01
 62
     4
 10
824.108
 20
-118.203
 30
0.0
 70
    48
  0
VERTEX
  5
34C
  8
EBENE01
 62
     4
 10
824.202
 20
-117.984
 30
0.0
 70
    40
  0
VERTEX
  5
34D
  8
EBENE01
 62
     4
 10
824.202
 20
-117.984
 30
0.0
 70
    48
  0
VERTEX
  5
34E
  8
EBENE01
 62
     4
 10
824.202
 20
-117.984
 30
0.0
 70
    40
  0
VERTEX
  5
34F
  8
EBENE01
 62
     4
 10
824.202
 20
-117.984
 30
0.0
 70
    48
  0
VERTEX
  5
350
  8
EBENE01
 62
     4
 10
824.422
 20
-117.796
 30
0.0
 70
    40
  0
VERTEX
  5
351
  8
EBENE01
 62
     4
 10
824.422
 20
-117.796
 30
0.0
 70
    48
  0
VERTEX
  5
352
  8
EBENE01
 62
     4
 10
824.672
 20
-117.639
 30
0.0
 70
    40
  0
VERTEX
  5
353
  8
EBENE01
 62
     4
 10
824.672
 20
-117.639
 30
0.0
 70
    48
  0
VERTEX
  5
354
  8
EBENE01
 62
     4
 10
824.672
 20
-117.639
 30
0.0
 70
    40
  0
VERTEX
  5
355
  8
EBENE01
 62
     4
 10
824.672
 20
-117.639
 30
0.0
 70
    48
  0
VERTEX
  5
356
  8
EBENE01
 62
     4
 10
825.017
 20
-117.482
 30
0.0
 70
    40
  0
VERTEX
  5
357
  8
EBENE01
 62
     4
 10
825.017
 20
-117.482
 30
0.0
 70
    48
  0
VERTEX
  5
358
  8
EBENE01
 62
     4
 10
825.425
 20
-117.388
 30
0.0
 70
    40
  0
VERTEX
  5
359
  8
EBENE01
 62
     4
 10
825.425
 20
-117.388
 30
0.0
 70
    48
  0
VERTEX
  5
35A
  8
EBENE01
 62
     4
 10
825.425
 20
-117.388
 30
0.0
 70
    40
  0
VERTEX
  5
35B
  8
EBENE01
 62
     4
 10
825.425
 20
-117.388
 30
0.0
 70
    48
  0
VERTEX
  5
35C
  8
EBENE01
 62
     4
 10
825.801
 20
-117.325
 30
0.0
 70
    40
  0
VERTEX
  5
35D
  8
EBENE01
 62
     4
 10
825.801
 20
-117.325
 30
0.0
 70
    48
  0
VERTEX
  5
35E
  8
EBENE01
 62
     4
 10
826.208
 20
-117.294
 30
0.0
 70
    40
  0
VERTEX
  5
35F
  8
EBENE01
 62
     4
 10
826.208
 20
-117.294
 30
0.0
 70
    48
  0
VERTEX
  5
360
  8
EBENE01
 62
     4
 10
826.208
 20
-117.294
 30
0.0
 70
    40
  0
VERTEX
  5
361
  8
EBENE01
 62
     4
 10
826.208
 20
-117.294
 30
0.0
 70
    48
  0
VERTEX
  5
362
  8
EBENE01
 62
     4
 10
826.584
 20
-117.294
 30
0.0
 70
    40
  0
VERTEX
  5
363
  8
EBENE01
 62
     4
 10
826.584
 20
-117.294
 30
0.0
 70
    48
  0
VERTEX
  5
364
  8
EBENE01
 62
     4
 10
826.992
 20
-117.294
 30
0.0
 70
    40
  0
VERTEX
  5
365
  8
EBENE01
 62
     4
 10
826.992
 20
-117.294
 30
0.0
 70
    48
  0
VERTEX
  5
366
  8
EBENE01
 62
     4
 10
826.992
 20
-117.294
 30
0.0
 70
    40
  0
VERTEX
  5
367
  8
EBENE01
 62
     4
 10
826.992
 20
-117.294
 30
0.0
 70
    48
  0
VERTEX
  5
368
  8
EBENE01
 62
     4
 10
827.368
 20
-117.325
 30
0.0
 70
    40
  0
VERTEX
  5
369
  8
EBENE01
 62
     4
 10
827.368
 20
-117.325
 30
0.0
 70
    48
  0
VERTEX
  5
36A
  8
EBENE01
 62
     4
 10
827.775
 20
-117.388
 30
0.0
 70
    40
  0
VERTEX
  5
36B
  8
EBENE01
 62
     4
 10
827.775
 20
-117.388
 30
0.0
 70
    48
  0
VERTEX
  5
36C
  8
EBENE01
 62
     4
 10
827.775
 20
-117.388
 30
0.0
 70
    40
  0
VERTEX
  5
36D
  8
EBENE01
 62
     4
 10
827.775
 20
-117.388
 30
0.0
 70
    48
  0
VERTEX
  5
36E
  8
EBENE01
 62
     4
 10
828.151
 20
-117.420
 30
0.0
 70
    40
  0
VERTEX
  5
36F
  8
EBENE01
 62
     4
 10
828.151
 20
-117.420
 30
0.0
 70
    48
  0
VERTEX
  5
370
  8
EBENE01
 62
     4
 10
828.558
 20
-117.514
 30
0.0
 70
    40
  0
VERTEX
  5
371
  8
EBENE01
 62
     4
 10
828.558
 20
-117.514
 30
0.0
 70
    48
  0
VERTEX
  5
372
  8
EBENE01
 62
     4
 10
828.558
 20
-117.514
 30
0.0
 70
    40
  0
VERTEX
  5
373
  8
EBENE01
 62
     4
 10
828.558
 20
-117.514
 30
0.0
 70
    48
  0
VERTEX
  5
374
  8
EBENE01
 62
     4
 10
828.935
 20
-117.576
 30
0.0
 70
    40
  0
VERTEX
  5
375
  8
EBENE01
 62
     4
 10
828.935
 20
-117.576
 30
0.0
 70
    48
  0
VERTEX
  5
376
  8
EBENE01
 62
     4
 10
829.342
 20
-117.670
 30
0.0
 70
    40
  0
VERTEX
  5
377
  8
EBENE01
 62
     4
 10
829.342
 20
-117.670
 30
0.0
 70
    48
  0
VERTEX
  5
378
  8
EBENE01
 62
     4
 10
829.342
 20
-117.670
 30
0.0
 70
    40
  0
VERTEX
  5
379
  8
EBENE01
 62
     4
 10
829.342
 20
-117.670
 30
0.0
 70
    48
  0
VERTEX
  5
37A
  8
EBENE01
 62
     4
 10
829.718
 20
-117.796
 30
0.0
 70
    40
  0
VERTEX
  5
37B
  8
EBENE01
 62
     4
 10
829.718
 20
-117.796
 30
0.0
 70
    48
  0
VERTEX
  5
37C
  8
EBENE01
 62
     4
 10
830.094
 20
-117.890
 30
0.0
 70
    40
  0
VERTEX
  5
37D
  8
EBENE01
 62
     4
 10
830.094
 20
-117.890
 30
0.0
 70
    48
  0
VERTEX
  5
37E
  8
EBENE01
 62
     4
 10
830.094
 20
-117.890
 30
0.0
 70
    40
  0
VERTEX
  5
37F
  8
EBENE01
 62
     4
 10
830.094
 20
-117.890
 30
0.0
 70
    48
  0
VERTEX
  5
380
  8
EBENE01
 62
     4
 10
830.407
 20
-117.984
 30
0.0
 70
    40
  0
VERTEX
  5
381
  8
EBENE01
 62
     4
 10
830.407
 20
-117.984
 30
0.0
 70
    48
  0
VERTEX
  5
382
  8
EBENE01
 62
     4
 10
830.752
 20
-118.078
 30
0.0
 70
    40
  0
VERTEX
  5
383
  8
EBENE01
 62
     4
 10
830.752
 20
-118.078
 30
0.0
 70
    48
  0
SEQEND
  5
384
  8
EBENE01
 62
     4
  0
POLYLINE
  5
385
  8
EBENE01
 62
     4
 66
     1
 10
-42.994
 20
-179.842
 30
0.0
 70
    12
 75
     6
  0
VERTEX
  5
386
  8
EBENE01
 62
     4
 10
739.462
 20
-115.006
 30
0.0
 70
    40
  0
VERTEX
  5
387
  8
EBENE01
 62
     4
 10
739.462
 20
-115.006
 30
0.0
 70
    48
  0
VERTEX
  5
388
  8
EBENE01
 62
     4
 10
738.679
 20
-114.850
 30
0.0
 70
    40
  0
VERTEX
  5
389
  8
EBENE01
 62
     4
 10
738.679
 20
-114.850
 30
0.0
 70
    48
  0
VERTEX
  5
38A
  8
EBENE01
 62
     4
 10
738.115
 20
-114.756
 30
0.0
 70
    40
  0
VERTEX
  5
38B
  8
EBENE01
 62
     4
 10
738.115
 20
-114.756
 30
0.0
 70
    48
  0
VERTEX
  5
38C
  8
EBENE01
 62
     4
 10
738.115
 20
-114.756
 30
0.0
 70
    40
  0
VERTEX
  5
38D
  8
EBENE01
 62
     4
 10
738.115
 20
-114.756
 30
0.0
 70
    48
  0
VERTEX
  5
38E
  8
EBENE01
 62
     4
 10
737.676
 20
-114.693
 30
0.0
 70
    40
  0
VERTEX
  5
38F
  8
EBENE01
 62
     4
 10
737.676
 20
-114.693
 30
0.0
 70
    48
  0
VERTEX
  5
390
  8
EBENE01
 62
     4
 10
737.268
 20
-114.630
 30
0.0
 70
    40
  0
VERTEX
  5
391
  8
EBENE01
 62
     4
 10
737.268
 20
-114.630
 30
0.0
 70
    48
  0
VERTEX
  5
392
  8
EBENE01
 62
     4
 10
737.268
 20
-114.630
 30
0.0
 70
    40
  0
VERTEX
  5
393
  8
EBENE01
 62
     4
 10
737.268
 20
-114.630
 30
0.0
 70
    48
  0
VERTEX
  5
394
  8
EBENE01
 62
     4
 10
736.892
 20
-114.599
 30
0.0
 70
    40
  0
VERTEX
  5
395
  8
EBENE01
 62
     4
 10
736.892
 20
-114.599
 30
0.0
 70
    48
  0
VERTEX
  5
396
  8
EBENE01
 62
     4
 10
736.485
 20
-114.536
 30
0.0
 70
    40
  0
VERTEX
  5
397
  8
EBENE01
 62
     4
 10
736.485
 20
-114.536
 30
0.0
 70
    48
  0
VERTEX
  5
398
  8
EBENE01
 62
     4
 10
736.485
 20
-114.536
 30
0.0
 70
    40
  0
VERTEX
  5
399
  8
EBENE01
 62
     4
 10
736.485
 20
-114.536
 30
0.0
 70
    48
  0
VERTEX
  5
39A
  8
EBENE01
 62
     4
 10
736.109
 20
-114.505
 30
0.0
 70
    40
  0
VERTEX
  5
39B
  8
EBENE01
 62
     4
 10
736.109
 20
-114.505
 30
0.0
 70
    48
  0
VERTEX
  5
39C
  8
EBENE01
 62
     4
 10
735.701
 20
-114.474
 30
0.0
 70
    40
  0
VERTEX
  5
39D
  8
EBENE01
 62
     4
 10
735.701
 20
-114.474
 30
0.0
 70
    48
  0
VERTEX
  5
39E
  8
EBENE01
 62
     4
 10
735.701
 20
-114.474
 30
0.0
 70
    40
  0
VERTEX
  5
39F
  8
EBENE01
 62
     4
 10
735.701
 20
-114.474
 30
0.0
 70
    48
  0
VERTEX
  5
3A0
  8
EBENE01
 62
     4
 10
735.325
 20
-114.442
 30
0.0
 70
    40
  0
VERTEX
  5
3A1
  8
EBENE01
 62
     4
 10
735.325
 20
-114.442
 30
0.0
 70
    48
  0
VERTEX
  5
3A2
  8
EBENE01
 62
     4
 10
734.918
 20
-114.442
 30
0.0
 70
    40
  0
VERTEX
  5
3A3
  8
EBENE01
 62
     4
 10
734.918
 20
-114.442
 30
0.0
 70
    48
  0
VERTEX
  5
3A4
  8
EBENE01
 62
     4
 10
734.918
 20
-114.442
 30
0.0
 70
    40
  0
VERTEX
  5
3A5
  8
EBENE01
 62
     4
 10
734.918
 20
-114.442
 30
0.0
 70
    48
  0
VERTEX
  5
3A6
  8
EBENE01
 62
     4
 10
734.542
 20
-114.442
 30
0.0
 70
    40
  0
VERTEX
  5
3A7
  8
EBENE01
 62
     4
 10
734.542
 20
-114.442
 30
0.0
 70
    48
  0
VERTEX
  5
3A8
  8
EBENE01
 62
     4
 10
734.135
 20
-114.474
 30
0.0
 70
    40
  0
VERTEX
  5
3A9
  8
EBENE01
 62
     4
 10
734.135
 20
-114.474
 30
0.0
 70
    48
  0
VERTEX
  5
3AA
  8
EBENE01
 62
     4
 10
734.135
 20
-114.474
 30
0.0
 70
    40
  0
VERTEX
  5
3AB
  8
EBENE01
 62
     4
 10
734.135
 20
-114.474
 30
0.0
 70
    48
  0
VERTEX
  5
3AC
  8
EBENE01
 62
     4
 10
733.758
 20
-114.505
 30
0.0
 70
    40
  0
VERTEX
  5
3AD
  8
EBENE01
 62
     4
 10
733.758
 20
-114.505
 30
0.0
 70
    48
  0
VERTEX
  5
3AE
  8
EBENE01
 62
     4
 10
733.351
 20
-114.568
 30
0.0
 70
    40
  0
VERTEX
  5
3AF
  8
EBENE01
 62
     4
 10
733.351
 20
-114.568
 30
0.0
 70
    48
  0
VERTEX
  5
3B0
  8
EBENE01
 62
     4
 10
733.351
 20
-114.568
 30
0.0
 70
    40
  0
VERTEX
  5
3B1
  8
EBENE01
 62
     4
 10
733.351
 20
-114.568
 30
0.0
 70
    48
  0
VERTEX
  5
3B2
  8
EBENE01
 62
     4
 10
732.975
 20
-114.630
 30
0.0
 70
    40
  0
VERTEX
  5
3B3
  8
EBENE01
 62
     4
 10
732.975
 20
-114.630
 30
0.0
 70
    48
  0
VERTEX
  5
3B4
  8
EBENE01
 62
     4
 10
732.568
 20
-114.693
 30
0.0
 70
    40
  0
VERTEX
  5
3B5
  8
EBENE01
 62
     4
 10
732.568
 20
-114.693
 30
0.0
 70
    48
  0
VERTEX
  5
3B6
  8
EBENE01
 62
     4
 10
732.568
 20
-114.693
 30
0.0
 70
    40
  0
VERTEX
  5
3B7
  8
EBENE01
 62
     4
 10
732.568
 20
-114.693
 30
0.0
 70
    48
  0
VERTEX
  5
3B8
  8
EBENE01
 62
     4
 10
732.192
 20
-114.787
 30
0.0
 70
    40
  0
VERTEX
  5
3B9
  8
EBENE01
 62
     4
 10
732.192
 20
-114.787
 30
0.0
 70
    48
  0
VERTEX
  5
3BA
  8
EBENE01
 62
     4
 10
731.784
 20
-114.881
 30
0.0
 70
    40
  0
VERTEX
  5
3BB
  8
EBENE01
 62
     4
 10
731.784
 20
-114.881
 30
0.0
 70
    48
  0
VERTEX
  5
3BC
  8
EBENE01
 62
     4
 10
731.784
 20
-114.881
 30
0.0
 70
    40
  0
VERTEX
  5
3BD
  8
EBENE01
 62
     4
 10
731.784
 20
-114.881
 30
0.0
 70
    48
  0
VERTEX
  5
3BE
  8
EBENE01
 62
     4
 10
731.408
 20
-115.038
 30
0.0
 70
    40
  0
VERTEX
  5
3BF
  8
EBENE01
 62
     4
 10
731.408
 20
-115.038
 30
0.0
 70
    48
  0
VERTEX
  5
3C0
  8
EBENE01
 62
     4
 10
731.001
 20
-115.194
 30
0.0
 70
    40
  0
VERTEX
  5
3C1
  8
EBENE01
 62
     4
 10
731.001
 20
-115.194
 30
0.0
 70
    48
  0
VERTEX
  5
3C2
  8
EBENE01
 62
     4
 10
731.001
 20
-115.194
 30
0.0
 70
    40
  0
VERTEX
  5
3C3
  8
EBENE01
 62
     4
 10
731.001
 20
-115.194
 30
0.0
 70
    48
  0
VERTEX
  5
3C4
  8
EBENE01
 62
     4
 10
730.625
 20
-115.382
 30
0.0
 70
    40
  0
VERTEX
  5
3C5
  8
EBENE01
 62
     4
 10
730.625
 20
-115.382
 30
0.0
 70
    48
  0
VERTEX
  5
3C6
  8
EBENE01
 62
     4
 10
730.217
 20
-115.602
 30
0.0
 70
    40
  0
VERTEX
  5
3C7
  8
EBENE01
 62
     4
 10
730.217
 20
-115.602
 30
0.0
 70
    48
  0
VERTEX
  5
3C8
  8
EBENE01
 62
     4
 10
730.217
 20
-115.602
 30
0.0
 70
    40
  0
VERTEX
  5
3C9
  8
EBENE01
 62
     4
 10
730.217
 20
-115.602
 30
0.0
 70
    48
  0
VERTEX
  5
3CA
  8
EBENE01
 62
     4
 10
729.841
 20
-115.884
 30
0.0
 70
    40
  0
VERTEX
  5
3CB
  8
EBENE01
 62
     4
 10
729.841
 20
-115.884
 30
0.0
 70
    48
  0
VERTEX
  5
3CC
  8
EBENE01
 62
     4
 10
729.496
 20
-116.197
 30
0.0
 70
    40
  0
VERTEX
  5
3CD
  8
EBENE01
 62
     4
 10
729.496
 20
-116.197
 30
0.0
 70
    48
  0
VERTEX
  5
3CE
  8
EBENE01
 62
     4
 10
729.496
 20
-116.197
 30
0.0
 70
    40
  0
VERTEX
  5
3CF
  8
EBENE01
 62
     4
 10
729.496
 20
-116.197
 30
0.0
 70
    48
  0
VERTEX
  5
3D0
  8
EBENE01
 62
     4
 10
729.214
 20
-116.511
 30
0.0
 70
    40
  0
VERTEX
  5
3D1
  8
EBENE01
 62
     4
 10
729.214
 20
-116.511
 30
0.0
 70
    48
  0
VERTEX
  5
3D2
  8
EBENE01
 62
     4
 10
728.995
 20
-116.855
 30
0.0
 70
    40
  0
VERTEX
  5
3D3
  8
EBENE01
 62
     4
 10
728.995
 20
-116.855
 30
0.0
 70
    48
  0
VERTEX
  5
3D4
  8
EBENE01
 62
     4
 10
728.995
 20
-116.855
 30
0.0
 70
    40
  0
VERTEX
  5
3D5
  8
EBENE01
 62
     4
 10
728.995
 20
-116.855
 30
0.0
 70
    48
  0
VERTEX
  5
3D6
  8
EBENE01
 62
     4
 10
728.776
 20
-117.231
 30
0.0
 70
    40
  0
VERTEX
  5
3D7
  8
EBENE01
 62
     4
 10
728.776
 20
-117.231
 30
0.0
 70
    48
  0
VERTEX
  5
3D8
  8
EBENE01
 62
     4
 10
728.619
 20
-117.608
 30
0.0
 70
    40
  0
VERTEX
  5
3D9
  8
EBENE01
 62
     4
 10
728.619
 20
-117.608
 30
0.0
 70
    48
  0
VERTEX
  5
3DA
  8
EBENE01
 62
     4
 10
728.619
 20
-117.608
 30
0.0
 70
    40
  0
VERTEX
  5
3DB
  8
EBENE01
 62
     4
 10
728.619
 20
-117.608
 30
0.0
 70
    48
  0
VERTEX
  5
3DC
  8
EBENE01
 62
     4
 10
728.462
 20
-117.984
 30
0.0
 70
    40
  0
VERTEX
  5
3DD
  8
EBENE01
 62
     4
 10
728.462
 20
-117.984
 30
0.0
 70
    48
  0
VERTEX
  5
3DE
  8
EBENE01
 62
     4
 10
728.368
 20
-118.391
 30
0.0
 70
    40
  0
VERTEX
  5
3DF
  8
EBENE01
 62
     4
 10
728.368
 20
-118.391
 30
0.0
 70
    48
  0
VERTEX
  5
3E0
  8
EBENE01
 62
     4
 10
728.368
 20
-118.391
 30
0.0
 70
    40
  0
VERTEX
  5
3E1
  8
EBENE01
 62
     4
 10
728.368
 20
-118.391
 30
0.0
 70
    48
  0
VERTEX
  5
3E2
  8
EBENE01
 62
     4
 10
728.306
 20
-118.767
 30
0.0
 70
    40
  0
VERTEX
  5
3E3
  8
EBENE01
 62
     4
 10
728.306
 20
-118.767
 30
0.0
 70
    48
  0
VERTEX
  5
3E4
  8
EBENE01
 62
     4
 10
728.306
 20
-119.174
 30
0.0
 70
    40
  0
VERTEX
  5
3E5
  8
EBENE01
 62
     4
 10
728.306
 20
-119.174
 30
0.0
 70
    48
  0
VERTEX
  5
3E6
  8
EBENE01
 62
     4
 10
728.306
 20
-119.174
 30
0.0
 70
    40
  0
VERTEX
  5
3E7
  8
EBENE01
 62
     4
 10
728.306
 20
-119.174
 30
0.0
 70
    48
  0
VERTEX
  5
3E8
  8
EBENE01
 62
     4
 10
728.306
 20
-119.551
 30
0.0
 70
    40
  0
VERTEX
  5
3E9
  8
EBENE01
 62
     4
 10
728.306
 20
-119.551
 30
0.0
 70
    48
  0
VERTEX
  5
3EA
  8
EBENE01
 62
     4
 10
728.368
 20
-119.958
 30
0.0
 70
    40
  0
VERTEX
  5
3EB
  8
EBENE01
 62
     4
 10
728.368
 20
-119.958
 30
0.0
 70
    48
  0
VERTEX
  5
3EC
  8
EBENE01
 62
     4
 10
728.368
 20
-119.958
 30
0.0
 70
    40
  0
VERTEX
  5
3ED
  8
EBENE01
 62
     4
 10
728.368
 20
-119.958
 30
0.0
 70
    48
  0
VERTEX
  5
3EE
  8
EBENE01
 62
     4
 10
728.462
 20
-120.334
 30
0.0
 70
    40
  0
VERTEX
  5
3EF
  8
EBENE01
 62
     4
 10
728.462
 20
-120.334
 30
0.0
 70
    48
  0
VERTEX
  5
3F0
  8
EBENE01
 62
     4
 10
728.619
 20
-120.741
 30
0.0
 70
    40
  0
VERTEX
  5
3F1
  8
EBENE01
 62
     4
 10
728.619
 20
-120.741
 30
0.0
 70
    48
  0
VERTEX
  5
3F2
  8
EBENE01
 62
     4
 10
728.619
 20
-120.741
 30
0.0
 70
    40
  0
VERTEX
  5
3F3
  8
EBENE01
 62
     4
 10
728.619
 20
-120.741
 30
0.0
 70
    48
  0
VERTEX
  5
3F4
  8
EBENE01
 62
     4
 10
728.776
 20
-121.117
 30
0.0
 70
    40
  0
VERTEX
  5
3F5
  8
EBENE01
 62
     4
 10
728.776
 20
-121.117
 30
0.0
 70
    48
  0
VERTEX
  5
3F6
  8
EBENE01
 62
     4
 10
728.995
 20
-121.525
 30
0.0
 70
    40
  0
VERTEX
  5
3F7
  8
EBENE01
 62
     4
 10
728.995
 20
-121.525
 30
0.0
 70
    48
  0
VERTEX
  5
3F8
  8
EBENE01
 62
     4
 10
728.995
 20
-121.525
 30
0.0
 70
    40
  0
VERTEX
  5
3F9
  8
EBENE01
 62
     4
 10
728.995
 20
-121.525
 30
0.0
 70
    48
  0
VERTEX
  5
3FA
  8
EBENE01
 62
     4
 10
729.246
 20
-121.901
 30
0.0
 70
    40
  0
VERTEX
  5
3FB
  8
EBENE01
 62
     4
 10
729.246
 20
-121.901
 30
0.0
 70
    48
  0
VERTEX
  5
3FC
  8
EBENE01
 62
     4
 10
729.559
 20
-122.246
 30
0.0
 70
    40
  0
VERTEX
  5
3FD
  8
EBENE01
 62
     4
 10
729.559
 20
-122.246
 30
0.0
 70
    48
  0
VERTEX
  5
3FE
  8
EBENE01
 62
     4
 10
729.559
 20
-122.246
 30
0.0
 70
    40
  0
VERTEX
  5
3FF
  8
EBENE01
 62
     4
 10
729.559
 20
-122.246
 30
0.0
 70
    48
  0
VERTEX
  5
400
  8
EBENE01
 62
     4
 10
729.872
 20
-122.590
 30
0.0
 70
    40
  0
VERTEX
  5
401
  8
EBENE01
 62
     4
 10
729.872
 20
-122.590
 30
0.0
 70
    48
  0
VERTEX
  5
402
  8
EBENE01
 62
     4
 10
730.249
 20
-122.872
 30
0.0
 70
    40
  0
VERTEX
  5
403
  8
EBENE01
 62
     4
 10
730.249
 20
-122.872
 30
0.0
 70
    48
  0
VERTEX
  5
404
  8
EBENE01
 62
     4
 10
730.249
 20
-122.872
 30
0.0
 70
    40
  0
VERTEX
  5
405
  8
EBENE01
 62
     4
 10
730.249
 20
-122.872
 30
0.0
 70
    48
  0
VERTEX
  5
406
  8
EBENE01
 62
     4
 10
730.625
 20
-123.123
 30
0.0
 70
    40
  0
VERTEX
  5
407
  8
EBENE01
 62
     4
 10
730.625
 20
-123.123
 30
0.0
 70
    48
  0
VERTEX
  5
408
  8
EBENE01
 62
     4
 10
731.001
 20
-123.343
 30
0.0
 70
    40
  0
VERTEX
  5
409
  8
EBENE01
 62
     4
 10
731.001
 20
-123.343
 30
0.0
 70
    48
  0
VERTEX
  5
40A
  8
EBENE01
 62
     4
 10
731.001
 20
-123.343
 30
0.0
 70
    40
  0
VERTEX
  5
40B
  8
EBENE01
 62
     4
 10
731.001
 20
-123.343
 30
0.0
 70
    48
  0
VERTEX
  5
40C
  8
EBENE01
 62
     4
 10
731.408
 20
-123.562
 30
0.0
 70
    40
  0
VERTEX
  5
40D
  8
EBENE01
 62
     4
 10
731.408
 20
-123.562
 30
0.0
 70
    48
  0
VERTEX
  5
40E
  8
EBENE01
 62
     4
 10
731.784
 20
-123.750
 30
0.0
 70
    40
  0
VERTEX
  5
40F
  8
EBENE01
 62
     4
 10
731.784
 20
-123.750
 30
0.0
 70
    48
  0
VERTEX
  5
410
  8
EBENE01
 62
     4
 10
731.784
 20
-123.750
 30
0.0
 70
    40
  0
VERTEX
  5
411
  8
EBENE01
 62
     4
 10
731.784
 20
-123.750
 30
0.0
 70
    48
  0
VERTEX
  5
412
  8
EBENE01
 62
     4
 10
732.192
 20
-123.938
 30
0.0
 70
    40
  0
VERTEX
  5
413
  8
EBENE01
 62
     4
 10
732.192
 20
-123.938
 30
0.0
 70
    48
  0
VERTEX
  5
414
  8
EBENE01
 62
     4
 10
732.568
 20
-124.095
 30
0.0
 70
    40
  0
VERTEX
  5
415
  8
EBENE01
 62
     4
 10
732.568
 20
-124.095
 30
0.0
 70
    48
  0
VERTEX
  5
416
  8
EBENE01
 62
     4
 10
732.568
 20
-124.095
 30
0.0
 70
    40
  0
VERTEX
  5
417
  8
EBENE01
 62
     4
 10
732.568
 20
-124.095
 30
0.0
 70
    48
  0
VERTEX
  5
418
  8
EBENE01
 62
     4
 10
732.975
 20
-124.283
 30
0.0
 70
    40
  0
VERTEX
  5
419
  8
EBENE01
 62
     4
 10
732.975
 20
-124.283
 30
0.0
 70
    48
  0
VERTEX
  5
41A
  8
EBENE01
 62
     4
 10
733.351
 20
-124.471
 30
0.0
 70
    40
  0
VERTEX
  5
41B
  8
EBENE01
 62
     4
 10
733.351
 20
-124.471
 30
0.0
 70
    48
  0
VERTEX
  5
41C
  8
EBENE01
 62
     4
 10
733.351
 20
-124.471
 30
0.0
 70
    40
  0
VERTEX
  5
41D
  8
EBENE01
 62
     4
 10
733.351
 20
-124.471
 30
0.0
 70
    48
  0
VERTEX
  5
41E
  8
EBENE01
 62
     4
 10
733.758
 20
-124.627
 30
0.0
 70
    40
  0
VERTEX
  5
41F
  8
EBENE01
 62
     4
 10
733.758
 20
-124.627
 30
0.0
 70
    48
  0
VERTEX
  5
420
  8
EBENE01
 62
     4
 10
734.135
 20
-124.815
 30
0.0
 70
    40
  0
VERTEX
  5
421
  8
EBENE01
 62
     4
 10
734.135
 20
-124.815
 30
0.0
 70
    48
  0
VERTEX
  5
422
  8
EBENE01
 62
     4
 10
734.135
 20
-124.815
 30
0.0
 70
    40
  0
VERTEX
  5
423
  8
EBENE01
 62
     4
 10
734.135
 20
-124.815
 30
0.0
 70
    48
  0
VERTEX
  5
424
  8
EBENE01
 62
     4
 10
734.542
 20
-124.972
 30
0.0
 70
    40
  0
VERTEX
  5
425
  8
EBENE01
 62
     4
 10
734.542
 20
-124.972
 30
0.0
 70
    48
  0
VERTEX
  5
426
  8
EBENE01
 62
     4
 10
734.918
 20
-125.160
 30
0.0
 70
    40
  0
VERTEX
  5
427
  8
EBENE01
 62
     4
 10
734.918
 20
-125.160
 30
0.0
 70
    48
  0
VERTEX
  5
428
  8
EBENE01
 62
     4
 10
734.918
 20
-125.160
 30
0.0
 70
    40
  0
VERTEX
  5
429
  8
EBENE01
 62
     4
 10
734.918
 20
-125.160
 30
0.0
 70
    48
  0
VERTEX
  5
42A
  8
EBENE01
 62
     4
 10
735.294
 20
-125.348
 30
0.0
 70
    40
  0
VERTEX
  5
42B
  8
EBENE01
 62
     4
 10
735.294
 20
-125.348
 30
0.0
 70
    48
  0
VERTEX
  5
42C
  8
EBENE01
 62
     4
 10
735.607
 20
-125.568
 30
0.0
 70
    40
  0
VERTEX
  5
42D
  8
EBENE01
 62
     4
 10
735.607
 20
-125.568
 30
0.0
 70
    48
  0
VERTEX
  5
42E
  8
EBENE01
 62
     4
 10
735.607
 20
-125.568
 30
0.0
 70
    40
  0
VERTEX
  5
42F
  8
EBENE01
 62
     4
 10
735.607
 20
-125.568
 30
0.0
 70
    48
  0
VERTEX
  5
430
  8
EBENE01
 62
     4
 10
735.827
 20
-125.724
 30
0.0
 70
    40
  0
VERTEX
  5
431
  8
EBENE01
 62
     4
 10
735.827
 20
-125.724
 30
0.0
 70
    48
  0
VERTEX
  5
432
  8
EBENE01
 62
     4
 10
735.952
 20
-125.850
 30
0.0
 70
    40
  0
VERTEX
  5
433
  8
EBENE01
 62
     4
 10
735.952
 20
-125.850
 30
0.0
 70
    48
  0
VERTEX
  5
434
  8
EBENE01
 62
     4
 10
735.952
 20
-125.850
 30
0.0
 70
    40
  0
VERTEX
  5
435
  8
EBENE01
 62
     4
 10
735.952
 20
-125.850
 30
0.0
 70
    48
  0
VERTEX
  5
436
  8
EBENE01
 62
     4
 10
736.046
 20
-126.038
 30
0.0
 70
    40
  0
VERTEX
  5
437
  8
EBENE01
 62
     4
 10
736.046
 20
-126.038
 30
0.0
 70
    48
  0
VERTEX
  5
438
  8
EBENE01
 62
     4
 10
736.109
 20
-126.226
 30
0.0
 70
    40
  0
VERTEX
  5
439
  8
EBENE01
 62
     4
 10
736.109
 20
-126.226
 30
0.0
 70
    48
  0
VERTEX
  5
43A
  8
EBENE01
 62
     4
 10
736.109
 20
-126.226
 30
0.0
 70
    40
  0
VERTEX
  5
43B
  8
EBENE01
 62
     4
 10
736.109
 20
-126.226
 30
0.0
 70
    48
  0
VERTEX
  5
43C
  8
EBENE01
 62
     4
 10
736.140
 20
-126.414
 30
0.0
 70
    40
  0
VERTEX
  5
43D
  8
EBENE01
 62
     4
 10
736.140
 20
-126.414
 30
0.0
 70
    48
  0
VERTEX
  5
43E
  8
EBENE01
 62
     4
 10
736.172
 20
-126.602
 30
0.0
 70
    40
  0
VERTEX
  5
43F
  8
EBENE01
 62
     4
 10
736.172
 20
-126.602
 30
0.0
 70
    48
  0
VERTEX
  5
440
  8
EBENE01
 62
     4
 10
736.172
 20
-126.602
 30
0.0
 70
    40
  0
VERTEX
  5
441
  8
EBENE01
 62
     4
 10
736.172
 20
-126.602
 30
0.0
 70
    48
  0
VERTEX
  5
442
  8
EBENE01
 62
     4
 10
736.140
 20
-126.821
 30
0.0
 70
    40
  0
VERTEX
  5
443
  8
EBENE01
 62
     4
 10
736.140
 20
-126.821
 30
0.0
 70
    48
  0
VERTEX
  5
444
  8
EBENE01
 62
     4
 10
736.046
 20
-127.009
 30
0.0
 70
    40
  0
VERTEX
  5
445
  8
EBENE01
 62
     4
 10
736.046
 20
-127.009
 30
0.0
 70
    48
  0
VERTEX
  5
446
  8
EBENE01
 62
     4
 10
736.046
 20
-127.009
 30
0.0
 70
    40
  0
VERTEX
  5
447
  8
EBENE01
 62
     4
 10
736.046
 20
-127.009
 30
0.0
 70
    48
  0
VERTEX
  5
448
  8
EBENE01
 62
     4
 10
735.890
 20
-127.197
 30
0.0
 70
    40
  0
VERTEX
  5
449
  8
EBENE01
 62
     4
 10
735.890
 20
-127.197
 30
0.0
 70
    48
  0
VERTEX
  5
44A
  8
EBENE01
 62
     4
 10
735.639
 20
-127.385
 30
0.0
 70
    40
  0
VERTEX
  5
44B
  8
EBENE01
 62
     4
 10
735.639
 20
-127.385
 30
0.0
 70
    48
  0
VERTEX
  5
44C
  8
EBENE01
 62
     4
 10
735.639
 20
-127.385
 30
0.0
 70
    40
  0
VERTEX
  5
44D
  8
EBENE01
 62
     4
 10
735.639
 20
-127.385
 30
0.0
 70
    48
  0
VERTEX
  5
44E
  8
EBENE01
 62
     4
 10
735.294
 20
-127.542
 30
0.0
 70
    40
  0
VERTEX
  5
44F
  8
EBENE01
 62
     4
 10
735.294
 20
-127.542
 30
0.0
 70
    48
  0
VERTEX
  5
450
  8
EBENE01
 62
     4
 10
734.918
 20
-127.636
 30
0.0
 70
    40
  0
VERTEX
  5
451
  8
EBENE01
 62
     4
 10
734.918
 20
-127.636
 30
0.0
 70
    48
  0
VERTEX
  5
452
  8
EBENE01
 62
     4
 10
734.918
 20
-127.636
 30
0.0
 70
    40
  0
VERTEX
  5
453
  8
EBENE01
 62
     4
 10
734.918
 20
-127.636
 30
0.0
 70
    48
  0
VERTEX
  5
454
  8
EBENE01
 62
     4
 10
734.542
 20
-127.730
 30
0.0
 70
    40
  0
VERTEX
  5
455
  8
EBENE01
 62
     4
 10
734.542
 20
-127.730
 30
0.0
 70
    48
  0
VERTEX
  5
456
  8
EBENE01
 62
     4
 10
734.135
 20
-127.793
 30
0.0
 70
    40
  0
VERTEX
  5
457
  8
EBENE01
 62
     4
 10
734.135
 20
-127.793
 30
0.0
 70
    48
  0
VERTEX
  5
458
  8
EBENE01
 62
     4
 10
734.135
 20
-127.793
 30
0.0
 70
    40
  0
VERTEX
  5
459
  8
EBENE01
 62
     4
 10
734.135
 20
-127.793
 30
0.0
 70
    48
  0
VERTEX
  5
45A
  8
EBENE01
 62
     4
 10
733.758
 20
-127.793
 30
0.0
 70
    40
  0
VERTEX
  5
45B
  8
EBENE01
 62
     4
 10
733.758
 20
-127.793
 30
0.0
 70
    48
  0
VERTEX
  5
45C
  8
EBENE01
 62
     4
 10
733.351
 20
-127.824
 30
0.0
 70
    40
  0
VERTEX
  5
45D
  8
EBENE01
 62
     4
 10
733.351
 20
-127.824
 30
0.0
 70
    48
  0
VERTEX
  5
45E
  8
EBENE01
 62
     4
 10
733.351
 20
-127.824
 30
0.0
 70
    40
  0
VERTEX
  5
45F
  8
EBENE01
 62
     4
 10
733.351
 20
-127.824
 30
0.0
 70
    48
  0
VERTEX
  5
460
  8
EBENE01
 62
     4
 10
732.975
 20
-127.824
 30
0.0
 70
    40
  0
VERTEX
  5
461
  8
EBENE01
 62
     4
 10
732.975
 20
-127.824
 30
0.0
 70
    48
  0
VERTEX
  5
462
  8
EBENE01
 62
     4
 10
732.568
 20
-127.793
 30
0.0
 70
    40
  0
VERTEX
  5
463
  8
EBENE01
 62
     4
 10
732.568
 20
-127.793
 30
0.0
 70
    48
  0
VERTEX
  5
464
  8
EBENE01
 62
     4
 10
732.568
 20
-127.793
 30
0.0
 70
    40
  0
VERTEX
  5
465
  8
EBENE01
 62
     4
 10
732.568
 20
-127.793
 30
0.0
 70
    48
  0
VERTEX
  5
466
  8
EBENE01
 62
     4
 10
732.192
 20
-127.761
 30
0.0
 70
    40
  0
VERTEX
  5
467
  8
EBENE01
 62
     4
 10
732.192
 20
-127.761
 30
0.0
 70
    48
  0
VERTEX
  5
468
  8
EBENE01
 62
     4
 10
731.784
 20
-127.699
 30
0.0
 70
    40
  0
VERTEX
  5
469
  8
EBENE01
 62
     4
 10
731.784
 20
-127.699
 30
0.0
 70
    48
  0
VERTEX
  5
46A
  8
EBENE01
 62
     4
 10
731.784
 20
-127.699
 30
0.0
 70
    40
  0
VERTEX
  5
46B
  8
EBENE01
 62
     4
 10
731.784
 20
-127.699
 30
0.0
 70
    48
  0
VERTEX
  5
46C
  8
EBENE01
 62
     4
 10
731.408
 20
-127.667
 30
0.0
 70
    40
  0
VERTEX
  5
46D
  8
EBENE01
 62
     4
 10
731.408
 20
-127.667
 30
0.0
 70
    48
  0
VERTEX
  5
46E
  8
EBENE01
 62
     4
 10
731.001
 20
-127.636
 30
0.0
 70
    40
  0
VERTEX
  5
46F
  8
EBENE01
 62
     4
 10
731.001
 20
-127.636
 30
0.0
 70
    48
  0
VERTEX
  5
470
  8
EBENE01
 62
     4
 10
731.001
 20
-127.636
 30
0.0
 70
    40
  0
VERTEX
  5
471
  8
EBENE01
 62
     4
 10
731.001
 20
-127.636
 30
0.0
 70
    48
  0
VERTEX
  5
472
  8
EBENE01
 62
     4
 10
730.593
 20
-127.542
 30
0.0
 70
    40
  0
VERTEX
  5
473
  8
EBENE01
 62
     4
 10
730.593
 20
-127.542
 30
0.0
 70
    48
  0
VERTEX
  5
474
  8
EBENE01
 62
     4
 10
730.155
 20
-127.448
 30
0.0
 70
    40
  0
VERTEX
  5
475
  8
EBENE01
 62
     4
 10
730.155
 20
-127.448
 30
0.0
 70
    48
  0
VERTEX
  5
476
  8
EBENE01
 62
     4
 10
730.155
 20
-127.448
 30
0.0
 70
    40
  0
VERTEX
  5
477
  8
EBENE01
 62
     4
 10
730.155
 20
-127.448
 30
0.0
 70
    48
  0
VERTEX
  5
478
  8
EBENE01
 62
     4
 10
729.590
 20
-127.323
 30
0.0
 70
    40
  0
VERTEX
  5
479
  8
EBENE01
 62
     4
 10
729.590
 20
-127.323
 30
0.0
 70
    48
  0
VERTEX
  5
47A
  8
EBENE01
 62
     4
 10
728.650
 20
-127.072
 30
0.0
 70
    40
  0
VERTEX
  5
47B
  8
EBENE01
 62
     4
 10
728.650
 20
-127.072
 30
0.0
 70
    48
  0
SEQEND
  5
47C
  8
EBENE01
 62
     4
  0
POLYLINE
  5
47D
  8
EBENE01
 62
     4
 66
     1
 10
-42.994
 20
-179.842
 30
0.0
 70
    12
 75
     6
  0
VERTEX
  5
47E
  8
EBENE01
 62
     4
 10
728.650
 20
-130.206
 30
0.0
 70
    40
  0
VERTEX
  5
47F
  8
EBENE01
 62
     4
 10
728.650
 20
-130.206
 30
0.0
 70
    48
  0
VERTEX
  5
480
  8
EBENE01
 62
     4
 10
729.590
 20
-130.394
 30
0.0
 70
    40
  0
VERTEX
  5
481
  8
EBENE01
 62
     4
 10
729.590
 20
-130.394
 30
0.0
 70
    48
  0
VERTEX
  5
482
  8
EBENE01
 62
     4
 10
730.155
 20
-130.519
 30
0.0
 70
    40
  0
VERTEX
  5
483
  8
EBENE01
 62
     4
 10
730.155
 20
-130.519
 30
0.0
 70
    48
  0
VERTEX
  5
484
  8
EBENE01
 62
     4
 10
730.155
 20
-130.519
 30
0.0
 70
    40
  0
VERTEX
  5
485
  8
EBENE01
 62
     4
 10
730.155
 20
-130.519
 30
0.0
 70
    48
  0
VERTEX
  5
486
  8
EBENE01
 62
     4
 10
730.593
 20
-130.582
 30
0.0
 70
    40
  0
VERTEX
  5
487
  8
EBENE01
 62
     4
 10
730.593
 20
-130.582
 30
0.0
 70
    48
  0
VERTEX
  5
488
  8
EBENE01
 62
     4
 10
731.001
 20
-130.644
 30
0.0
 70
    40
  0
VERTEX
  5
489
  8
EBENE01
 62
     4
 10
731.001
 20
-130.644
 30
0.0
 70
    48
  0
VERTEX
  5
48A
  8
EBENE01
 62
     4
 10
731.001
 20
-130.644
 30
0.0
 70
    40
  0
VERTEX
  5
48B
  8
EBENE01
 62
     4
 10
731.001
 20
-130.644
 30
0.0
 70
    48
  0
VERTEX
  5
48C
  8
EBENE01
 62
     4
 10
731.408
 20
-130.707
 30
0.0
 70
    40
  0
VERTEX
  5
48D
  8
EBENE01
 62
     4
 10
731.408
 20
-130.707
 30
0.0
 70
    48
  0
VERTEX
  5
48E
  8
EBENE01
 62
     4
 10
731.784
 20
-130.770
 30
0.0
 70
    40
  0
VERTEX
  5
48F
  8
EBENE01
 62
     4
 10
731.784
 20
-130.770
 30
0.0
 70
    48
  0
VERTEX
  5
490
  8
EBENE01
 62
     4
 10
731.784
 20
-130.770
 30
0.0
 70
    40
  0
VERTEX
  5
491
  8
EBENE01
 62
     4
 10
731.784
 20
-130.770
 30
0.0
 70
    48
  0
VERTEX
  5
492
  8
EBENE01
 62
     4
 10
732.192
 20
-130.801
 30
0.0
 70
    40
  0
VERTEX
  5
493
  8
EBENE01
 62
     4
 10
732.192
 20
-130.801
 30
0.0
 70
    48
  0
VERTEX
  5
494
  8
EBENE01
 62
     4
 10
732.568
 20
-130.801
 30
0.0
 70
    40
  0
VERTEX
  5
495
  8
EBENE01
 62
     4
 10
732.568
 20
-130.801
 30
0.0
 70
    48
  0
VERTEX
  5
496
  8
EBENE01
 62
     4
 10
732.568
 20
-130.801
 30
0.0
 70
    40
  0
VERTEX
  5
497
  8
EBENE01
 62
     4
 10
732.568
 20
-130.801
 30
0.0
 70
    48
  0
VERTEX
  5
498
  8
EBENE01
 62
     4
 10
732.975
 20
-130.833
 30
0.0
 70
    40
  0
VERTEX
  5
499
  8
EBENE01
 62
     4
 10
732.975
 20
-130.833
 30
0.0
 70
    48
  0
VERTEX
  5
49A
  8
EBENE01
 62
     4
 10
733.351
 20
-130.833
 30
0.0
 70
    40
  0
VERTEX
  5
49B
  8
EBENE01
 62
     4
 10
733.351
 20
-130.833
 30
0.0
 70
    48
  0
VERTEX
  5
49C
  8
EBENE01
 62
     4
 10
733.351
 20
-130.833
 30
0.0
 70
    40
  0
VERTEX
  5
49D
  8
EBENE01
 62
     4
 10
733.351
 20
-130.833
 30
0.0
 70
    48
  0
VERTEX
  5
49E
  8
EBENE01
 62
     4
 10
733.758
 20
-130.833
 30
0.0
 70
    40
  0
VERTEX
  5
49F
  8
EBENE01
 62
     4
 10
733.758
 20
-130.833
 30
0.0
 70
    48
  0
VERTEX
  5
4A0
  8
EBENE01
 62
     4
 10
734.135
 20
-130.833
 30
0.0
 70
    40
  0
VERTEX
  5
4A1
  8
EBENE01
 62
     4
 10
734.135
 20
-130.833
 30
0.0
 70
    48
  0
VERTEX
  5
4A2
  8
EBENE01
 62
     4
 10
734.135
 20
-130.833
 30
0.0
 70
    40
  0
VERTEX
  5
4A3
  8
EBENE01
 62
     4
 10
734.135
 20
-130.833
 30
0.0
 70
    48
  0
VERTEX
  5
4A4
  8
EBENE01
 62
     4
 10
734.542
 20
-130.833
 30
0.0
 70
    40
  0
VERTEX
  5
4A5
  8
EBENE01
 62
     4
 10
734.542
 20
-130.833
 30
0.0
 70
    48
  0
VERTEX
  5
4A6
  8
EBENE01
 62
     4
 10
734.918
 20
-130.801
 30
0.0
 70
    40
  0
VERTEX
  5
4A7
  8
EBENE01
 62
     4
 10
734.918
 20
-130.801
 30
0.0
 70
    48
  0
VERTEX
  5
4A8
  8
EBENE01
 62
     4
 10
734.918
 20
-130.801
 30
0.0
 70
    40
  0
VERTEX
  5
4A9
  8
EBENE01
 62
     4
 10
734.918
 20
-130.801
 30
0.0
 70
    48
  0
VERTEX
  5
4AA
  8
EBENE01
 62
     4
 10
735.325
 20
-130.770
 30
0.0
 70
    40
  0
VERTEX
  5
4AB
  8
EBENE01
 62
     4
 10
735.325
 20
-130.770
 30
0.0
 70
    48
  0
VERTEX
  5
4AC
  8
EBENE01
 62
     4
 10
735.701
 20
-130.707
 30
0.0
 70
    40
  0
VERTEX
  5
4AD
  8
EBENE01
 62
     4
 10
735.701
 20
-130.707
 30
0.0
 70
    48
  0
VERTEX
  5
4AE
  8
EBENE01
 62
     4
 10
735.701
 20
-130.707
 30
0.0
 70
    40
  0
VERTEX
  5
4AF
  8
EBENE01
 62
     4
 10
735.701
 20
-130.707
 30
0.0
 70
    48
  0
VERTEX
  5
4B0
  8
EBENE01
 62
     4
 10
736.109
 20
-130.644
 30
0.0
 70
    40
  0
VERTEX
  5
4B1
  8
EBENE01
 62
     4
 10
736.109
 20
-130.644
 30
0.0
 70
    48
  0
VERTEX
  5
4B2
  8
EBENE01
 62
     4
 10
736.485
 20
-130.550
 30
0.0
 70
    40
  0
VERTEX
  5
4B3
  8
EBENE01
 62
     4
 10
736.485
 20
-130.550
 30
0.0
 70
    48
  0
VERTEX
  5
4B4
  8
EBENE01
 62
     4
 10
736.485
 20
-130.550
 30
0.0
 70
    40
  0
VERTEX
  5
4B5
  8
EBENE01
 62
     4
 10
736.485
 20
-130.550
 30
0.0
 70
    48
  0
VERTEX
  5
4B6
  8
EBENE01
 62
     4
 10
736.892
 20
-130.456
 30
0.0
 70
    40
  0
VERTEX
  5
4B7
  8
EBENE01
 62
     4
 10
736.892
 20
-130.456
 30
0.0
 70
    48
  0
VERTEX
  5
4B8
  8
EBENE01
 62
     4
 10
737.268
 20
-130.362
 30
0.0
 70
    40
  0
VERTEX
  5
4B9
  8
EBENE01
 62
     4
 10
737.268
 20
-130.362
 30
0.0
 70
    48
  0
VERTEX
  5
4BA
  8
EBENE01
 62
     4
 10
737.268
 20
-130.362
 30
0.0
 70
    40
  0
VERTEX
  5
4BB
  8
EBENE01
 62
     4
 10
737.268
 20
-130.362
 30
0.0
 70
    48
  0
VERTEX
  5
4BC
  8
EBENE01
 62
     4
 10
737.676
 20
-130.206
 30
0.0
 70
    40
  0
VERTEX
  5
4BD
  8
EBENE01
 62
     4
 10
737.676
 20
-130.206
 30
0.0
 70
    48
  0
VERTEX
  5
4BE
  8
EBENE01
 62
     4
 10
738.052
 20
-130.049
 30
0.0
 70
    40
  0
VERTEX
  5
4BF
  8
EBENE01
 62
     4
 10
738.052
 20
-130.049
 30
0.0
 70
    48
  0
VERTEX
  5
4C0
  8
EBENE01
 62
     4
 10
738.052
 20
-130.049
 30
0.0
 70
    40
  0
VERTEX
  5
4C1
  8
EBENE01
 62
     4
 10
738.052
 20
-130.049
 30
0.0
 70
    48
  0
VERTEX
  5
4C2
  8
EBENE01
 62
     4
 10
738.459
 20
-129.830
 30
0.0
 70
    40
  0
VERTEX
  5
4C3
  8
EBENE01
 62
     4
 10
738.459
 20
-129.830
 30
0.0
 70
    48
  0
VERTEX
  5
4C4
  8
EBENE01
 62
     4
 10
738.835
 20
-129.548
 30
0.0
 70
    40
  0
VERTEX
  5
4C5
  8
EBENE01
 62
     4
 10
738.835
 20
-129.548
 30
0.0
 70
    48
  0
VERTEX
  5
4C6
  8
EBENE01
 62
     4
 10
738.835
 20
-129.548
 30
0.0
 70
    40
  0
VERTEX
  5
4C7
  8
EBENE01
 62
     4
 10
738.835
 20
-129.548
 30
0.0
 70
    48
  0
VERTEX
  5
4C8
  8
EBENE01
 62
     4
 10
739.243
 20
-129.234
 30
0.0
 70
    40
  0
VERTEX
  5
4C9
  8
EBENE01
 62
     4
 10
739.243
 20
-129.234
 30
0.0
 70
    48
  0
VERTEX
  5
4CA
  8
EBENE01
 62
     4
 10
739.588
 20
-128.890
 30
0.0
 70
    40
  0
VERTEX
  5
4CB
  8
EBENE01
 62
     4
 10
739.588
 20
-128.890
 30
0.0
 70
    48
  0
VERTEX
  5
4CC
  8
EBENE01
 62
     4
 10
739.588
 20
-128.890
 30
0.0
 70
    40
  0
VERTEX
  5
4CD
  8
EBENE01
 62
     4
 10
739.588
 20
-128.890
 30
0.0
 70
    48
  0
VERTEX
  5
4CE
  8
EBENE01
 62
     4
 10
739.870
 20
-128.482
 30
0.0
 70
    40
  0
VERTEX
  5
4CF
  8
EBENE01
 62
     4
 10
739.870
 20
-128.482
 30
0.0
 70
    48
  0
VERTEX
  5
4D0
  8
EBENE01
 62
     4
 10
740.120
 20
-128.106
 30
0.0
 70
    40
  0
VERTEX
  5
4D1
  8
EBENE01
 62
     4
 10
740.120
 20
-128.106
 30
0.0
 70
    48
  0
VERTEX
  5
4D2
  8
EBENE01
 62
     4
 10
740.120
 20
-128.106
 30
0.0
 70
    40
  0
VERTEX
  5
4D3
  8
EBENE01
 62
     4
 10
740.120
 20
-128.106
 30
0.0
 70
    48
  0
VERTEX
  5
4D4
  8
EBENE01
 62
     4
 10
740.308
 20
-127.699
 30
0.0
 70
    40
  0
VERTEX
  5
4D5
  8
EBENE01
 62
     4
 10
740.308
 20
-127.699
 30
0.0
 70
    48
  0
VERTEX
  5
4D6
  8
EBENE01
 62
     4
 10
740.465
 20
-127.323
 30
0.0
 70
    40
  0
VERTEX
  5
4D7
  8
EBENE01
 62
     4
 10
740.465
 20
-127.323
 30
0.0
 70
    48
  0
VERTEX
  5
4D8
  8
EBENE01
 62
     4
 10
740.465
 20
-127.323
 30
0.0
 70
    40
  0
VERTEX
  5
4D9
  8
EBENE01
 62
     4
 10
740.465
 20
-127.323
 30
0.0
 70
    48
  0
VERTEX
  5
4DA
  8
EBENE01
 62
     4
 10
740.590
 20
-126.915
 30
0.0
 70
    40
  0
VERTEX
  5
4DB
  8
EBENE01
 62
     4
 10
740.590
 20
-126.915
 30
0.0
 70
    48
  0
VERTEX
  5
4DC
  8
EBENE01
 62
     4
 10
740.653
 20
-126.539
 30
0.0
 70
    40
  0
VERTEX
  5
4DD
  8
EBENE01
 62
     4
 10
740.653
 20
-126.539
 30
0.0
 70
    48
  0
VERTEX
  5
4DE
  8
EBENE01
 62
     4
 10
740.653
 20
-126.539
 30
0.0
 70
    40
  0
VERTEX
  5
4DF
  8
EBENE01
 62
     4
 10
740.653
 20
-126.539
 30
0.0
 70
    48
  0
VERTEX
  5
4E0
  8
EBENE01
 62
     4
 10
740.684
 20
-126.132
 30
0.0
 70
    40
  0
VERTEX
  5
4E1
  8
EBENE01
 62
     4
 10
740.684
 20
-126.132
 30
0.0
 70
    48
  0
VERTEX
  5
4E2
  8
EBENE01
 62
     4
 10
740.716
 20
-125.756
 30
0.0
 70
    40
  0
VERTEX
  5
4E3
  8
EBENE01
 62
     4
 10
740.716
 20
-125.756
 30
0.0
 70
    48
  0
VERTEX
  5
4E4
  8
EBENE01
 62
     4
 10
740.716
 20
-125.756
 30
0.0
 70
    40
  0
VERTEX
  5
4E5
  8
EBENE01
 62
     4
 10
740.716
 20
-125.756
 30
0.0
 70
    48
  0
VERTEX
  5
4E6
  8
EBENE01
 62
     4
 10
740.684
 20
-125.348
 30
0.0
 70
    40
  0
VERTEX
  5
4E7
  8
EBENE01
 62
     4
 10
740.684
 20
-125.348
 30
0.0
 70
    48
  0
VERTEX
  5
4E8
  8
EBENE01
 62
     4
 10
740.590
 20
-124.972
 30
0.0
 70
    40
  0
VERTEX
  5
4E9
  8
EBENE01
 62
     4
 10
740.590
 20
-124.972
 30
0.0
 70
    48
  0
VERTEX
  5
4EA
  8
EBENE01
 62
     4
 10
740.590
 20
-124.972
 30
0.0
 70
    40
  0
VERTEX
  5
4EB
  8
EBENE01
 62
     4
 10
740.590
 20
-124.972
 30
0.0
 70
    48
  0
VERTEX
  5
4EC
  8
EBENE01
 62
     4
 10
740.496
 20
-124.565
 30
0.0
 70
    40
  0
VERTEX
  5
4ED
  8
EBENE01
 62
     4
 10
740.496
 20
-124.565
 30
0.0
 70
    48
  0
VERTEX
  5
4EE
  8
EBENE01
 62
     4
 10
740.308
 20
-124.189
 30
0.0
 70
    40
  0
VERTEX
  5
4EF
  8
EBENE01
 62
     4
 10
740.308
 20
-124.189
 30
0.0
 70
    48
  0
VERTEX
  5
4F0
  8
EBENE01
 62
     4
 10
740.308
 20
-124.189
 30
0.0
 70
    40
  0
VERTEX
  5
4F1
  8
EBENE01
 62
     4
 10
740.308
 20
-124.189
 30
0.0
 70
    48
  0
VERTEX
  5
4F2
  8
EBENE01
 62
     4
 10
740.120
 20
-123.781
 30
0.0
 70
    40
  0
VERTEX
  5
4F3
  8
EBENE01
 62
     4
 10
740.120
 20
-123.781
 30
0.0
 70
    48
  0
VERTEX
  5
4F4
  8
EBENE01
 62
     4
 10
739.901
 20
-123.405
 30
0.0
 70
    40
  0
VERTEX
  5
4F5
  8
EBENE01
 62
     4
 10
739.901
 20
-123.405
 30
0.0
 70
    48
  0
VERTEX
  5
4F6
  8
EBENE01
 62
     4
 10
739.901
 20
-123.405
 30
0.0
 70
    40
  0
VERTEX
  5
4F7
  8
EBENE01
 62
     4
 10
739.901
 20
-123.405
 30
0.0
 70
    48
  0
VERTEX
  5
4F8
  8
EBENE01
 62
     4
 10
739.588
 20
-123.029
 30
0.0
 70
    40
  0
VERTEX
  5
4F9
  8
EBENE01
 62
     4
 10
739.588
 20
-123.029
 30
0.0
 70
    48
  0
VERTEX
  5
4FA
  8
EBENE01
 62
     4
 10
739.211
 20
-122.653
 30
0.0
 70
    40
  0
VERTEX
  5
4FB
  8
EBENE01
 62
     4
 10
739.211
 20
-122.653
 30
0.0
 70
    48
  0
VERTEX
  5
4FC
  8
EBENE01
 62
     4
 10
739.211
 20
-122.653
 30
0.0
 70
    40
  0
VERTEX
  5
4FD
  8
EBENE01
 62
     4
 10
739.211
 20
-122.653
 30
0.0
 70
    48
  0
VERTEX
  5
4FE
  8
EBENE01
 62
     4
 10
738.835
 20
-122.308
 30
0.0
 70
    40
  0
VERTEX
  5
4FF
  8
EBENE01
 62
     4
 10
738.835
 20
-122.308
 30
0.0
 70
    48
  0
VERTEX
  5
500
  8
EBENE01
 62
     4
 10
738.459
 20
-122.026
 30
0.0
 70
    40
  0
VERTEX
  5
501
  8
EBENE01
 62
     4
 10
738.459
 20
-122.026
 30
0.0
 70
    48
  0
VERTEX
  5
502
  8
EBENE01
 62
     4
 10
738.459
 20
-122.026
 30
0.0
 70
    40
  0
VERTEX
  5
503
  8
EBENE01
 62
     4
 10
738.459
 20
-122.026
 30
0.0
 70
    48
  0
VERTEX
  5
504
  8
EBENE01
 62
     4
 10
738.052
 20
-121.776
 30
0.0
 70
    40
  0
VERTEX
  5
505
  8
EBENE01
 62
     4
 10
738.052
 20
-121.776
 30
0.0
 70
    48
  0
VERTEX
  5
506
  8
EBENE01
 62
     4
 10
737.676
 20
-121.556
 30
0.0
 70
    40
  0
VERTEX
  5
507
  8
EBENE01
 62
     4
 10
737.676
 20
-121.556
 30
0.0
 70
    48
  0
VERTEX
  5
508
  8
EBENE01
 62
     4
 10
737.676
 20
-121.556
 30
0.0
 70
    40
  0
VERTEX
  5
509
  8
EBENE01
 62
     4
 10
737.676
 20
-121.556
 30
0.0
 70
    48
  0
VERTEX
  5
50A
  8
EBENE01
 62
     4
 10
737.268
 20
-121.337
 30
0.0
 70
    40
  0
VERTEX
  5
50B
  8
EBENE01
 62
     4
 10
737.268
 20
-121.337
 30
0.0
 70
    48
  0
VERTEX
  5
50C
  8
EBENE01
 62
     4
 10
736.892
 20
-121.180
 30
0.0
 70
    40
  0
VERTEX
  5
50D
  8
EBENE01
 62
     4
 10
736.892
 20
-121.180
 30
0.0
 70
    48
  0
VERTEX
  5
50E
  8
EBENE01
 62
     4
 10
736.892
 20
-121.180
 30
0.0
 70
    40
  0
VERTEX
  5
50F
  8
EBENE01
 62
     4
 10
736.892
 20
-121.180
 30
0.0
 70
    48
  0
VERTEX
  5
510
  8
EBENE01
 62
     4
 10
736.485
 20
-120.992
 30
0.0
 70
    40
  0
VERTEX
  5
511
  8
EBENE01
 62
     4
 10
736.485
 20
-120.992
 30
0.0
 70
    48
  0
VERTEX
  5
512
  8
EBENE01
 62
     4
 10
736.109
 20
-120.804
 30
0.0
 70
    40
  0
VERTEX
  5
513
  8
EBENE01
 62
     4
 10
736.109
 20
-120.804
 30
0.0
 70
    48
  0
VERTEX
  5
514
  8
EBENE01
 62
     4
 10
736.109
 20
-120.804
 30
0.0
 70
    40
  0
VERTEX
  5
515
  8
EBENE01
 62
     4
 10
736.109
 20
-120.804
 30
0.0
 70
    48
  0
VERTEX
  5
516
  8
EBENE01
 62
     4
 10
735.701
 20
-120.616
 30
0.0
 70
    40
  0
VERTEX
  5
517
  8
EBENE01
 62
     4
 10
735.701
 20
-120.616
 30
0.0
 70
    48
  0
VERTEX
  5
518
  8
EBENE01
 62
     4
 10
735.325
 20
-120.428
 30
0.0
 70
    40
  0
VERTEX
  5
519
  8
EBENE01
 62
     4
 10
735.325
 20
-120.428
 30
0.0
 70
    48
  0
VERTEX
  5
51A
  8
EBENE01
 62
     4
 10
735.325
 20
-120.428
 30
0.0
 70
    40
  0
VERTEX
  5
51B
  8
EBENE01
 62
     4
 10
735.325
 20
-120.428
 30
0.0
 70
    48
  0
VERTEX
  5
51C
  8
EBENE01
 62
     4
 10
734.918
 20
-120.271
 30
0.0
 70
    40
  0
VERTEX
  5
51D
  8
EBENE01
 62
     4
 10
734.918
 20
-120.271
 30
0.0
 70
    48
  0
VERTEX
  5
51E
  8
EBENE01
 62
     4
 10
734.542
 20
-120.115
 30
0.0
 70
    40
  0
VERTEX
  5
51F
  8
EBENE01
 62
     4
 10
734.542
 20
-120.115
 30
0.0
 70
    48
  0
VERTEX
  5
520
  8
EBENE01
 62
     4
 10
734.542
 20
-120.115
 30
0.0
 70
    40
  0
VERTEX
  5
521
  8
EBENE01
 62
     4
 10
734.542
 20
-120.115
 30
0.0
 70
    48
  0
VERTEX
  5
522
  8
EBENE01
 62
     4
 10
734.135
 20
-119.927
 30
0.0
 70
    40
  0
VERTEX
  5
523
  8
EBENE01
 62
     4
 10
734.135
 20
-119.927
 30
0.0
 70
    48
  0
VERTEX
  5
524
  8
EBENE01
 62
     4
 10
733.758
 20
-119.707
 30
0.0
 70
    40
  0
VERTEX
  5
525
  8
EBENE01
 62
     4
 10
733.758
 20
-119.707
 30
0.0
 70
    48
  0
VERTEX
  5
526
  8
EBENE01
 62
     4
 10
733.758
 20
-119.707
 30
0.0
 70
    40
  0
VERTEX
  5
527
  8
EBENE01
 62
     4
 10
733.758
 20
-119.707
 30
0.0
 70
    48
  0
VERTEX
  5
528
  8
EBENE01
 62
     4
 10
733.382
 20
-119.457
 30
0.0
 70
    40
  0
VERTEX
  5
529
  8
EBENE01
 62
     4
 10
733.382
 20
-119.457
 30
0.0
 70
    48
  0
VERTEX
  5
52A
  8
EBENE01
 62
     4
 10
733.069
 20
-119.237
 30
0.0
 70
    40
  0
VERTEX
  5
52B
  8
EBENE01
 62
     4
 10
733.069
 20
-119.237
 30
0.0
 70
    48
  0
VERTEX
  5
52C
  8
EBENE01
 62
     4
 10
733.069
 20
-119.237
 30
0.0
 70
    40
  0
VERTEX
  5
52D
  8
EBENE01
 62
     4
 10
733.069
 20
-119.237
 30
0.0
 70
    48
  0
VERTEX
  5
52E
  8
EBENE01
 62
     4
 10
732.850
 20
-118.986
 30
0.0
 70
    40
  0
VERTEX
  5
52F
  8
EBENE01
 62
     4
 10
732.850
 20
-118.986
 30
0.0
 70
    48
  0
VERTEX
  5
530
  8
EBENE01
 62
     4
 10
732.756
 20
-118.798
 30
0.0
 70
    40
  0
VERTEX
  5
531
  8
EBENE01
 62
     4
 10
732.756
 20
-118.798
 30
0.0
 70
    48
  0
VERTEX
  5
532
  8
EBENE01
 62
     4
 10
732.756
 20
-118.798
 30
0.0
 70
    40
  0
VERTEX
  5
533
  8
EBENE01
 62
     4
 10
732.756
 20
-118.798
 30
0.0
 70
    48
  0
VERTEX
  5
534
  8
EBENE01
 62
     4
 10
732.724
 20
-118.579
 30
0.0
 70
    40
  0
VERTEX
  5
535
  8
EBENE01
 62
     4
 10
732.724
 20
-118.579
 30
0.0
 70
    48
  0
VERTEX
  5
536
  8
EBENE01
 62
     4
 10
732.756
 20
-118.391
 30
0.0
 70
    40
  0
VERTEX
  5
537
  8
EBENE01
 62
     4
 10
732.756
 20
-118.391
 30
0.0
 70
    48
  0
VERTEX
  5
538
  8
EBENE01
 62
     4
 10
732.756
 20
-118.391
 30
0.0
 70
    40
  0
VERTEX
  5
539
  8
EBENE01
 62
     4
 10
732.756
 20
-118.391
 30
0.0
 70
    48
  0
VERTEX
  5
53A
  8
EBENE01
 62
     4
 10
732.818
 20
-118.203
 30
0.0
 70
    40
  0
VERTEX
  5
53B
  8
EBENE01
 62
     4
 10
732.818
 20
-118.203
 30
0.0
 70
    48
  0
VERTEX
  5
53C
  8
EBENE01
 62
     4
 10
732.944
 20
-117.984
 30
0.0
 70
    40
  0
VERTEX
  5
53D
  8
EBENE01
 62
     4
 10
732.944
 20
-117.984
 30
0.0
 70
    48
  0
VERTEX
  5
53E
  8
EBENE01
 62
     4
 10
732.944
 20
-117.984
 30
0.0
 70
    40
  0
VERTEX
  5
53F
  8
EBENE01
 62
     4
 10
732.944
 20
-117.984
 30
0.0
 70
    48
  0
VERTEX
  5
540
  8
EBENE01
 62
     4
 10
733.132
 20
-117.796
 30
0.0
 70
    40
  0
VERTEX
  5
541
  8
EBENE01
 62
     4
 10
733.132
 20
-117.796
 30
0.0
 70
    48
  0
VERTEX
  5
542
  8
EBENE01
 62
     4
 10
733.414
 20
-117.639
 30
0.0
 70
    40
  0
VERTEX
  5
543
  8
EBENE01
 62
     4
 10
733.414
 20
-117.639
 30
0.0
 70
    48
  0
VERTEX
  5
544
  8
EBENE01
 62
     4
 10
733.414
 20
-117.639
 30
0.0
 70
    40
  0
VERTEX
  5
545
  8
EBENE01
 62
     4
 10
733.414
 20
-117.639
 30
0.0
 70
    48
  0
VERTEX
  5
546
  8
EBENE01
 62
     4
 10
733.758
 20
-117.482
 30
0.0
 70
    40
  0
VERTEX
  5
547
  8
EBENE01
 62
     4
 10
733.758
 20
-117.482
 30
0.0
 70
    48
  0
VERTEX
  5
548
  8
EBENE01
 62
     4
 10
734.135
 20
-117.388
 30
0.0
 70
    40
  0
VERTEX
  5
549
  8
EBENE01
 62
     4
 10
734.135
 20
-117.388
 30
0.0
 70
    48
  0
VERTEX
  5
54A
  8
EBENE01
 62
     4
 10
734.135
 20
-117.388
 30
0.0
 70
    40
  0
VERTEX
  5
54B
  8
EBENE01
 62
     4
 10
734.135
 20
-117.388
 30
0.0
 70
    48
  0
VERTEX
  5
54C
  8
EBENE01
 62
     4
 10
734.542
 20
-117.325
 30
0.0
 70
    40
  0
VERTEX
  5
54D
  8
EBENE01
 62
     4
 10
734.542
 20
-117.325
 30
0.0
 70
    48
  0
VERTEX
  5
54E
  8
EBENE01
 62
     4
 10
734.918
 20
-117.294
 30
0.0
 70
    40
  0
VERTEX
  5
54F
  8
EBENE01
 62
     4
 10
734.918
 20
-117.294
 30
0.0
 70
    48
  0
VERTEX
  5
550
  8
EBENE01
 62
     4
 10
734.918
 20
-117.294
 30
0.0
 70
    40
  0
VERTEX
  5
551
  8
EBENE01
 62
     4
 10
734.918
 20
-117.294
 30
0.0
 70
    48
  0
VERTEX
  5
552
  8
EBENE01
 62
     4
 10
735.325
 20
-117.294
 30
0.0
 70
    40
  0
VERTEX
  5
553
  8
EBENE01
 62
     4
 10
735.325
 20
-117.294
 30
0.0
 70
    48
  0
VERTEX
  5
554
  8
EBENE01
 62
     4
 10
735.701
 20
-117.294
 30
0.0
 70
    40
  0
VERTEX
  5
555
  8
EBENE01
 62
     4
 10
735.701
 20
-117.294
 30
0.0
 70
    48
  0
VERTEX
  5
556
  8
EBENE01
 62
     4
 10
735.701
 20
-117.294
 30
0.0
 70
    40
  0
VERTEX
  5
557
  8
EBENE01
 62
     4
 10
735.701
 20
-117.294
 30
0.0
 70
    48
  0
VERTEX
  5
558
  8
EBENE01
 62
     4
 10
736.109
 20
-117.325
 30
0.0
 70
    40
  0
VERTEX
  5
559
  8
EBENE01
 62
     4
 10
736.109
 20
-117.325
 30
0.0
 70
    48
  0
VERTEX
  5
55A
  8
EBENE01
 62
     4
 10
736.485
 20
-117.388
 30
0.0
 70
    40
  0
VERTEX
  5
55B
  8
EBENE01
 62
     4
 10
736.485
 20
-117.388
 30
0.0
 70
    48
  0
VERTEX
  5
55C
  8
EBENE01
 62
     4
 10
736.485
 20
-117.388
 30
0.0
 70
    40
  0
VERTEX
  5
55D
  8
EBENE01
 62
     4
 10
736.485
 20
-117.388
 30
0.0
 70
    48
  0
VERTEX
  5
55E
  8
EBENE01
 62
     4
 10
736.892
 20
-117.420
 30
0.0
 70
    40
  0
VERTEX
  5
55F
  8
EBENE01
 62
     4
 10
736.892
 20
-117.420
 30
0.0
 70
    48
  0
VERTEX
  5
560
  8
EBENE01
 62
     4
 10
737.268
 20
-117.514
 30
0.0
 70
    40
  0
VERTEX
  5
561
  8
EBENE01
 62
     4
 10
737.268
 20
-117.514
 30
0.0
 70
    48
  0
VERTEX
  5
562
  8
EBENE01
 62
     4
 10
737.268
 20
-117.514
 30
0.0
 70
    40
  0
VERTEX
  5
563
  8
EBENE01
 62
     4
 10
737.268
 20
-117.514
 30
0.0
 70
    48
  0
VERTEX
  5
564
  8
EBENE01
 62
     4
 10
737.676
 20
-117.576
 30
0.0
 70
    40
  0
VERTEX
  5
565
  8
EBENE01
 62
     4
 10
737.676
 20
-117.576
 30
0.0
 70
    48
  0
VERTEX
  5
566
  8
EBENE01
 62
     4
 10
738.052
 20
-117.670
 30
0.0
 70
    40
  0
VERTEX
  5
567
  8
EBENE01
 62
     4
 10
738.052
 20
-117.670
 30
0.0
 70
    48
  0
VERTEX
  5
568
  8
EBENE01
 62
     4
 10
738.052
 20
-117.670
 30
0.0
 70
    40
  0
VERTEX
  5
569
  8
EBENE01
 62
     4
 10
738.052
 20
-117.670
 30
0.0
 70
    48
  0
VERTEX
  5
56A
  8
EBENE01
 62
     4
 10
738.459
 20
-117.796
 30
0.0
 70
    40
  0
VERTEX
  5
56B
  8
EBENE01
 62
     4
 10
738.459
 20
-117.796
 30
0.0
 70
    48
  0
VERTEX
  5
56C
  8
EBENE01
 62
     4
 10
738.804
 20
-117.890
 30
0.0
 70
    40
  0
VERTEX
  5
56D
  8
EBENE01
 62
     4
 10
738.804
 20
-117.890
 30
0.0
 70
    48
  0
VERTEX
  5
56E
  8
EBENE01
 62
     4
 10
738.804
 20
-117.890
 30
0.0
 70
    40
  0
VERTEX
  5
56F
  8
EBENE01
 62
     4
 10
738.804
 20
-117.890
 30
0.0
 70
    48
  0
VERTEX
  5
570
  8
EBENE01
 62
     4
 10
739.149
 20
-117.984
 30
0.0
 70
    40
  0
VERTEX
  5
571
  8
EBENE01
 62
     4
 10
739.149
 20
-117.984
 30
0.0
 70
    48
  0
VERTEX
  5
572
  8
EBENE01
 62
     4
 10
739.462
 20
-118.078
 30
0.0
 70
    40
  0
VERTEX
  5
573
  8
EBENE01
 62
     4
 10
739.462
 20
-118.078
 30
0.0
 70
    48
  0
SEQEND
  5
574
  8
EBENE01
 62
     4
  0
TEXT
  5
575
  8
TEXT
 62
     7
 10
844.140
 20
-49.241
 30
0.0
 40
7.035
  1
Offer No.:
 41
0.6600000000000001
  0
TEXT
  5
576
  8
TEXT
 62
     7
 10
843.830
 20
-69.748
 30
0.0
 40
7.035
  1
Projekt:
 41
0.6600000000000001
  0
LINE
  5
577
  8
2
 10
838.071
 20
-51.107
 30
0.0
 11
1072.584
 21
-51.107
 31
0.0
  0
LINE
  5
578
  8
2
 10
720.815
 20
-29.349
 30
0.0
 11
1072.584
 21
-29.349
 31
0.0
  0
LINE
  5
579
  8
2
 10
720.815
 20
-104.134
 30
0.0
 11
1072.584
 21
-104.134
 31
0.0
  0
LINE
  5
57A
  8
2
 10
720.815
 20
-72.865
 30
0.0
 11
1072.584
 21
-72.865
 31
0.0
  0
LINE
  5
57B
  8
2
 10
720.815
 20
-135.402
 30
0.0
 11
720.815
 21
-29.349
 31
0.0
  0
LINE
  5
57C
  8
2
 10
838.071
 20
-135.402
 30
0.0
 11
838.071
 21
-104.134
 31
0.0
  0
TEXT
  5
57D
  8
TEXT
 62
     7
 10
726.678
 20
-102.180
 30
0.0
 40
7.817
  1
Einheit / unit:  mm
 41
0.6600000000000001
  0
LINE
  5
57E
  8
2
 10
720.815
 20
-88.500
 30
0.0
 11
838.071
 21
-88.500
 31
0.0
  0
TEXT
  5
57F
  8
TEXT
 62
     7
 10
725.910
 20
-86.545
 30
0.0
 40
7.035
  1
Datum/Date:
 41
0.6600000000000001
  0
LINE
  5
580
  8
A2
 10
730.683
 20
-43.290
 30
0.0
 11
766.740
 21
-43.290
 31
0.0
  0
LINE
  5
581
  8
5
 10
732.540
 20
-47.199
 30
0.0
 11
752.083
 21
-51.107
 31
0.0
  0
LINE
  5
582
  8
5
 10
732.540
 20
-39.382
 30
0.0
 11
752.083
 21
-35.473
 31
0.0
  0
LINE
  5
583
  8
5
 10
732.540
 20
-43.290
 30
0.0
 11
732.540
 21
-39.382
 31
0.0
  0
LINE
  5
584
  8
5
 10
732.540
 20
-43.290
 30
0.0
 11
732.540
 21
-47.199
 31
0.0
  0
CIRCLE
  5
585
  8
5
 10
767.717
 20
-43.290
 30
0.0
 40
7.817
  0
LINE
  5
586
  8
5
 10
752.083
 20
-35.473
 30
0.0
 11
752.083
 21
-43.290
 31
0.0
  0
LINE
  5
587
  8
5
 10
752.083
 20
-51.107
 30
0.0
 11
752.083
 21
-43.290
 31
0.0
  0
LINE
  5
588
  8
A2
 10
767.717
 20
-33.615
 30
0.0
 11
767.717
 21
-52.965
 31
0.0
  0
CIRCLE
  5
589
  8
5
 10
767.717
 20
-43.290
 30
0.0
 40
3.909
  0
LINE
  5
58A
  8
A2
 10
763.109
 20
-43.290
 30
0.0
 11
777.392
 21
-43.290
 31
0.0
  0
LINE
  5
58B
  8
2
 10
787.039
 20
-57.231
 30
0.0
 11
787.039
 21
-29.349
 31
0.0
  0
LINE
  5
58C
  8
2
 10
838.071
 20
-72.865
 30
0.0
 11
838.071
 21
-29.349
 31
0.0
  0
LINE
  5
58D
  8
2
 10
838.071
 20
-104.134
 30
0.0
 11
838.071
 21
-72.865
 31
0.0
  0
LINE
  5
58E
  8
2
 10
720.815
 20
-57.231
 30
0.0
 11
838.071
 21
-57.231
 31
0.0
  0
TEXT
  5
58F
  8
TEXT
 62
     7
 10
726.678
 20
-70.911
 30
0.0
 40
7.035
  1
A&D SD
 41
0.6600000000000001
  0
TEXT
  5
590
  8
EBENE01
 10
-11.087
 20
644.237
 30
0.0
 40
7.035
  1
Dimension drawing subject to change. We reserve the right to change constructional details.
 41
0.8722550953320167
 72
     5
 11
507.460
 21
644.237
 31
0.0
  0
TEXT
  5
591
  8
EBENE01
 10
-11.087
 20
655.962
 30
0.0
 40
7.035
  1
Massbild unverbindlich. Aenderungen konstruktiver Einzelheiten vorbehalten.
 41
0.9022277227722767
 72
     5
 11
416.313
 21
655.962
 31
0.0
  0
TEXT
  5
592
  8
TEXT
 62
     7
 10
776.306
 20
-86.545
 30
0.0
 40
7.035
  1
07.02.2011
 41
0.6600000000000001
  0
TEXT
  5
593
  8
TEXT
 62
     7
 10
844.392
 20
-37.679
 30
0.0
 40
7.035
  1
Angebot-Nr.:
 41
0.6600000000000001
  0
TEXT
  5
594
  8
TEXT
 62
     7
 10
844.074
 20
-59.240
 30
0.0
 40
7.035
  1
Anlage:
 41
0.6600000000000001
  0
TEXT
  5
595
  8
EBENE01
 10
9.622
 20
-131.239
 30
0.0
 40
9.771
  1

  0
ENDSEC
  0
EOF
