  0
SECTION
  2
HEADER
  9
$ACADVER
  1
AC1009
  9
$INSBASE
 10
0.0
 20
0.0
 30
0.0
  9
$EXTMIN
 10
111.5
 20
-1173.6
 30
0.0
  9
$EXTMAX
 10
1667.3
 20
-29.0
 30
0.0
  9
$LIMMIN
 10
0.0
 20
0.0
  9
$LIMMAX
 10
3000.0
 20
2000.0
  9
$ORTHOMODE
 70
     1
  9
$REGENMODE
 70
     1
  9
$FILLMODE
 70
     1
  9
$QTEXTMODE
 70
     0
  9
$MIRRTEXT
 70
     1
  9
$DRAGMODE
 70
     2
  9
$LTSCALE
 40
1.0
  9
$OSMODE
 70
   161
  9
$ATTMODE
 70
     1
  9
$TEXTSIZE
 40
2.5
  9
$TRACEWID
 40
1.0
  9
$TEXTSTYLE
  7
STANDARD
  9
$CLAYER
  8
0
  9
$CELTYPE
  6
BYLAYER
  9
$CECOLOR
 62
   256
  9
$DIMSCALE
 40
1.0
  9
$DIMASZ
 40
2.5
  9
$DIMEXO
 40
0.625
  9
$DIMDLI
 40
3.75
  9
$DIMRND
 40
0.0
  9
$DIMDLE
 40
0.0
  9
$DIMEXE
 40
1.25
  9
$DIMTP
 40
0.0
  9
$DIMTM
 40
0.0
  9
$DIMTXT
 40
2.5
  9
$DIMCEN
 40
2.5
  9
$DIMTSZ
 40
0.0
  9
$DIMTOL
 70
     0
  9
$DIMLIM
 70
     0
  9
$DIMTIH
 70
     0
  9
$DIMTOH
 70
     0
  9
$DIMSE1
 70
     0
  9
$DIMSE2
 70
     0
  9
$DIMTAD
 70
     1
  9
$DIMZIN
 70
     8
  9
$DIMBLK
  1

  9
$DIMASO
 70
     1
  9
$DIMSHO
 70
     1
  9
$DIMPOST
  1

  9
$DIMAPOST
  1

  9
$DIMALT
 70
     0
  9
$DIMALTD
 70
     4
  9
$DIMALTF
 40
0.039
  9
$DIMLFAC
 40
1.0
  9
$DIMTOFL
 70
     0
  9
$DIMTVP
 40
0.0
  9
$DIMTIX
 70
     0
  9
$DIMSOXD
 70
     0
  9
$DIMSAH
 70
     0
  9
$DIMBLK1
  1

  9
$DIMBLK2
  1

  9
$DIMSTYLE
  2
STANDARD
  9
$DIMCLRD
 70
     0
  9
$DIMCLRE
 70
     0
  9
$DIMCLRT
 70
     0
  9
$DIMTFAC
 40
1.0
  9
$DIMGAP
 40
0.09
  9
$LUNITS
 70
     2
  9
$LUPREC
 70
     4
  9
$AXISMODE
 70
     0
  9
$AXISUNIT
 10
0.0
 20
0.0
  9
$SKETCHINC
 40
1.0
  9
$FILLETRAD
 40
2.5
  9
$AUNITS
 70
     0
  9
$AUPREC
 70
     0
  9
$MENU
  1
.
  9
$ELEVATION
 40
0.0
  9
$PELEVATION
 40
0.0
  9
$THICKNESS
 40
0.0
  9
$LIMCHECK
 70
     0
  9
$BLIPMODE
 70
     0
  9
$CHAMFERA
 40
10.0
  9
$CHAMFERB
 40
10.0
  9
$SKPOLY
 70
     0
  9
$TDCREATE
 40
2450959.665412998
  9
$TDUPDATE
 40
0.000000000
  9
$TDINDWG
 40
0.8215412153
  9
$TDUSRTIMER
 40
0.0000000000
  9
$USRTIMER
 70
     1
  9
$ANGBASE
 50
0.0
  9
$ANGDIR
 70
     0
  9
$PDMODE
 70
     0
  9
$PDSIZE
 40
0.0
  9
$PLINEWID
 40
0.0
  9
$COORDS
 70
     1
  9
$SPLFRAME
 70
     0
  9
$SPLINETYPE
 70
     6
  9
$SPLINESEGS
 70
     8
  9
$ATTDIA
 70
     0
  9
$ATTREQ
 70
     1
  9
$HANDLING
 70
     0
  9
$HANDSEED
  5
92
  9
$SURFTAB1
 70
     6
  9
$SURFTAB2
 70
     6
  9
$SURFTYPE
 70
     6
  9
$SURFU
 70
     6
  9
$SURFV
 70
     6
  9
$UCSNAME
  2

  9
$UCSORG
 10
0.0
 20
0.0
 30
0.0
  9
$UCSXDIR
 10
1.0
 20
0.0
 30
0.0
  9
$UCSYDIR
 10
0.0
 20
1.0
 30
0.0
  9
$PUCSNAME
  2

  9
$PUCSORG
 10
0.0
 20
0.0
 30
0.0
  9
$PUCSXDIR
 10
1.0
 20
0.0
 30
0.0
  9
$PUCSYDIR
 10
0.0
 20
1.0
 30
0.0
  9
$USERI1
 70
     0
  9
$USERI2
 70
     0
  9
$USERI3
 70
     0
  9
$USERI4
 70
     0
  9
$USERI5
 70
     0
  9
$USERR1
 40
0.0
  9
$USERR2
 40
0.0
  9
$USERR3
 40
0.0
  9
$USERR4
 40
0.0
  9
$USERR5
 40
0.0
  9
$WORLDVIEW
 70
     1
  9
$SHADEDGE
 70
     3
  9
$SHADEDIF
 70
    70
  9
$TILEMODE
 70
     1
  9
$MAXACTVP
 70
    16
  9
$PINSBASE
 10
0.0
 20
0.0
 30
0.0
  9
$PLIMCHECK
 70
     0
  9
$PEXTMIN
 10
1.000000E+20
 20
1.000000E+20
 30
1.000000E+20
  9
$PEXTMAX
 10
-1.000000E+20
 20
-1.000000E+20
 30
-1.000000E+20
  9
$PLIMMIN
 10
0.0
 20
0.0
  9
$PLIMMAX
 10
12.0
 20
9.0
  9
$UNITMODE
 70
     0
  9
$VISRETAIN
 70
     0
  9
$PLINEGEN
 70
     1
  9
$PSLTSCALE
 70
     0
  9
$TREEDEPTH
 70
  3020
  9
$DWGCODEPAGE
  3
iso8859-1
  0
ENDSEC
  0
SECTION
  2
TABLES
  0
TABLE
  2
VPORT
 70
     1
  0
VPORT
  2
*ACTIVE
 70
     0
 10
0.0
 20
0.0
 11
1.0
 21
1.0
 12
1500.0
 22
1000.0
 13
0.0
 23
0.0
 14
1.0
 24
1.0
 15
0.0
 25
0.0
 16
0.0
 26
0.0
 36
1.0
 17
0.0
 27
0.0
 37
0.0
 40
2040.0
 41
0.688564
 42
50.0
 43
0.0
 44
0.0
 50
0.0
 51
0.0
 71
     0
 72
   100
 73
     1
 74
     1
 75
     0
 76
     0
 77
     0
 78
     0
  0
ENDTAB
  0
TABLE
  2
LTYPE
 70
     3
  0
LTYPE
  2
CONTINUOUS
 70
    64
  3
Solid line
 72
    65
 73
     0
 40
0.0
  0
LTYPE
  2
ACAD_ISO10W100
 70
    64
  3
ISO Strichpunktlinie __ . __ . __ . __ . __ . _
 72
    65
 73
     4
 40
18.5
 49
12.0
 49
-3.0
 49
0.5
 49
-3.0
  0
LTYPE
  2
ACAD_ISO02W100
 70
    64
  3
ISO Strichlinie __ __ __ __ __ __ __ __ __ __ _
 72
    65
 73
     2
 40
15.0
 49
12.0
 49
-3.0
  0
ENDTAB
  0
TABLE
  2
LAYER
 70
     7
  0
LAYER
  2
0
 70
    64
 62
     7
  6
CONTINUOUS
  0
LAYER
  2
L03
 70
     0
 62
     7
  6
CONTINUOUS
  0
LAYER
  2
L11
 70
     0
 62
     1
  6
ACAD_ISO10W100
  0
LAYER
  2
A01
 70
    64
 62
     3
  6
CONTINUOUS
  0
LAYER
  2
L31
 70
    64
 62
     4
  6
CONTINUOUS
  0
LAYER
  2
L05
 70
     0
 62
     1
  6
ACAD_ISO02W100
  0
LAYER
  2
L21
 70
     0
 62
     2
  6
CONTINUOUS
  0
LAYER
  2
EBENE01
 70
     0
 62
     7
  6
CONTINUOUS
  0
LAYER
  2
TEXT
 70
     0
 62
     7
  6
CONTINUOUS
  0
LAYER
  2
2
 70
     0
 62
     7
  6
CONTINUOUS
  0
LAYER
  2
A2
 70
     0
 62
     7
  6
CONTINUOUS
  0
LAYER
  2
5
 70
     0
 62
     7
  6
CONTINUOUS
  0
ENDTAB
  0
TABLE
  2
STYLE
 70
     1
  0
STYLE
  2
STANDARD
 70
    64
 40
0.0
 41
1.0
 50
0.0
 71
     0
 42
2.5
  3
txt
  4

  0
ENDTAB
  0
TABLE
  2
VIEW
 70
     0
  0
ENDTAB
  0
TABLE
  2
UCS
 70
     0
  0
ENDTAB
  0
TABLE
  2
APPID
 70
     1
  0
APPID
  2
ACAD
 70
     0
  0
ENDTAB
  0
TABLE
  2
DIMSTYLE
 70
     1
  0
DIMSTYLE
  2
STANDARD
 70
     0
  3

  4

  5

  6

  7

 40
1.0
 41
2.5
 42
0.625
 43
3.75
 44
1.25
 45
0.0
 46
0.0
 47
0.0
 48
0.0
 71
     0
 72
     0
 73
     0
 74
     0
 75
     0
 76
     0
 77
     1
 78
     8
140
2.5
141
2.5
142
0.0
143
0.039
144
1.0
145
0.0
146
1.0
147
0.09
170
     0
171
     4
172
     0
173
     0
174
     0
175
     0
176
     0
177
     0
178
     0
  0
ENDTAB
  0
ENDSEC
  0
SECTION
  2
BLOCKS
  0
BLOCK
  8
0
  2
$MODEL_SPACE
 70
     0
 10
-58.769
 20
-267.184
 30
0.0
  3
$MODEL_SPACE
  1

  0
ENDBLK
  5
20
  8
0
  0
BLOCK
 67
     1
  8
0
  2
$PAPER_SPACE
 70
     0
 10
-58.769
 20
-267.184
 30
0.0
  3
$PAPER_SPACE
  1

  0
ENDBLK
  5
1C
 67
     1
  0
ENDSEC
  0
SECTION
  2
ENTITIES
  0
LINE
  8
L21
 39
1.125
  5
5A
 10
65.223
 20
342.166
 30
0.0
 11
66.939
 21
343.882
 31
0.0
  0
LINE
  8
L21
 39
1.125
  5
5B
 10
65.223
 20
338.631
 30
0.0
 11
70.474
 21
343.882
 31
0.0
  0
LINE
  8
L21
 39
1.125
  5
5C
 10
65.223
 20
335.095
 30
0.0
 11
73.223
 21
343.095
 31
0.0
  0
LINE
  8
L21
 39
1.125
  5
5D
 10
65.545
 20
331.882
 30
0.0
 11
73.223
 21
339.560
 31
0.0
  0
LINE
  8
L21
 39
1.125
  5
5E
 10
69.081
 20
331.882
 30
0.0
 11
73.223
 21
336.024
 31
0.0
  0
LINE
  8
L21
 39
1.125
  5
5F
 10
72.616
 20
331.882
 30
0.0
 11
73.223
 21
332.489
 31
0.0
  0
LINE
  8
L21
 39
1.125
  5
60
 10
79.609
 20
319.212
 30
0.0
 11
70.553
 21
328.268
 31
0.0
  0
LINE
  8
L21
 39
1.125
  5
61
 10
85.057
 20
317.300
 30
0.0
 11
70.474
 21
331.882
 31
0.0
  0
LINE
  8
L21
 39
1.125
  5
62
 10
89.009
 20
316.883
 30
0.0
 11
73.223
 21
332.669
 31
0.0
  0
LINE
  8
L21
 39
1.125
  5
63
 10
92.316
 20
317.111
 30
0.0
 11
73.223
 21
336.204
 31
0.0
  0
LINE
  8
L21
 39
1.125
  5
64
 10
95.209
 20
317.754
 30
0.0
 11
73.223
 21
339.740
 31
0.0
  0
LINE
  8
L21
 39
1.125
  5
65
 10
97.790
 20
318.709
 30
0.0
 11
73.223
 21
343.276
 31
0.0
  0
LINE
  8
L21
 39
1.125
  5
66
 10
72.616
 20
343.882
 30
0.0
 11
70.050
 21
346.449
 31
0.0
  0
LINE
  8
L21
 39
1.125
  5
67
 10
100.110
 20
319.924
 30
0.0
 11
71.265
 21
348.769
 31
0.0
  0
LINE
  8
L21
 39
1.125
  5
68
 10
102.199
 20
321.371
 30
0.0
 11
72.712
 21
350.858
 31
0.0
  0
LINE
  8
L21
 39
1.125
  5
69
 10
104.072
 20
323.033
 30
0.0
 11
74.374
 21
352.731
 31
0.0
  0
LINE
  8
L21
 39
1.125
  5
6A
 10
105.734
 20
324.906
 30
0.0
 11
76.247
 21
354.394
 31
0.0
  0
LINE
  8
L21
 39
1.125
  5
6B
 10
107.181
 20
326.995
 30
0.0
 11
78.336
 21
355.840
 31
0.0
  0
LINE
  8
L21
 39
1.125
  5
6C
 10
108.396
 20
329.316
 30
0.0
 11
80.656
 21
357.055
 31
0.0
  0
LINE
  8
L21
 39
1.125
  5
6D
 10
109.352
 20
331.896
 30
0.0
 11
83.236
 21
358.011
 31
0.0
  0
LINE
  8
L21
 39
1.125
  5
6E
 10
109.994
 20
334.789
 30
0.0
 11
86.130
 21
358.653
 31
0.0
  0
LINE
  8
L21
 39
1.125
  5
6F
 10
110.222
 20
338.096
 30
0.0
 11
89.437
 21
358.881
 31
0.0
  0
LINE
  8
L21
 39
1.125
  5
70
 10
109.806
 20
342.048
 30
0.0
 11
93.389
 21
358.465
 31
0.0
  0
LINE
  8
L21
 39
1.125
  5
71
 10
107.893
 20
347.497
 30
0.0
 11
98.837
 21
356.552
 31
0.0
  0
POLYLINE
  8
L03
 39
1.850
  5
72
 66
     1
 10
171.223
 20
-945.118
 30
0.0
 70
     1
  0
VERTEX
  8
L03
 39
1.850
  5
73
 10
73.223
 20
331.882
 30
0.0
  0
VERTEX
  8
L03
 39
1.850
  5
74
 10
65.223
 20
331.882
 30
0.0
  0
VERTEX
  8
L03
 39
1.850
  5
75
 10
65.223
 20
343.882
 30
0.0
  0
VERTEX
  8
L03
 39
1.850
  5
76
 10
73.223
 20
343.882
 30
0.0
  0
SEQEND
  8
L03
 39
1.850
  5
77
  0
ARC
  8
L03
 39
1.850
  5
78
 10
89.223
 20
337.882
 30
0.0
 40
21.000
 50
-163.39845
 51
163.39845
  0
LINE
  8
L11
 39
0.925
  5
79
 10
117.223
 20
337.882
 30
0.0
 11
64.223
 21
337.882
 31
0.0
  0
LINE
  8
L11
 39
0.925
  5
7A
 10
89.223
 20
362.882
 30
0.0
 11
89.223
 21
312.882
 31
0.0
  0
LINE
  8
L31
 39
1.125
  5
7B
 10
65.223
 20
273.382
 30
0.0
 11
65.223
 21
233.382
 31
0.0
  0
LINE
  8
L31
 39
1.125
  5
7C
 10
65.223
 20
329.882
 30
0.0
 11
65.223
 21
280.382
 31
0.0
  0
TEXT
  8
L31
 39
1.125
  5
7D
 10
20.973
 20
189.549
 30
0.0
 40
14.000
  1
DIN 332-DR M16
 41
0.75
 72
     1
 11
89.223
 21
184.882
 31
0.0
 73
     1
  0
TEXT
  8
L31
 39
1.125
  5
7E
 10
32.348
 20
161.549
 30
0.0
 40
14.000
  1
DIN 6885 Bl.1
 41
0.75
 72
     1
 11
89.223
 21
156.882
 31
0.0
 73
     1
  0
LINE
  8
L31
 39
1.125
  5
7F
 10
110.223
 20
335.882
 30
0.0
 11
110.223
 21
233.382
 31
0.0
  0
SOLID
  8
L31
 39
1.125
  5
80
 10
110.223
 20
236.882
 30
0.0
 11
110.223
 21
236.882
 31
0.0
 12
96.223
 22
233.382
 32
0.0
 13
96.223
 23
240.382
 33
0.0
  0
SOLID
  8
L31
 39
1.125
  5
81
 10
65.223
 20
236.882
 30
0.0
 11
65.223
 21
236.882
 31
0.0
 12
79.223
 22
240.382
 32
0.0
 13
79.223
 23
233.382
 33
0.0
  0
LINE
  8
L31
 39
1.125
  5
82
 10
110.223
 20
236.882
 30
0.0
 11
65.223
 21
236.882
 31
0.0
  0
TEXT
  8
L31
 39
1.125
  5
83
 10
78.973
 20
245.282
 30
0.0
 40
14.000
  1
45
 41
0.75
 72
     1
 11
87.723
 21
245.282
 31
0.0
  0
LINE
  8
L31
 39
1.125
  5
84
 10
73.223
 20
329.882
 30
0.0
 11
73.223
 21
273.382
 31
0.0
  0
SOLID
  8
L31
 39
1.125
  5
85
 10
73.223
 20
276.882
 30
0.0
 11
73.223
 21
276.882
 31
0.0
 12
87.223
 22
280.382
 32
0.0
 13
87.223
 23
273.382
 33
0.0
  0
LINE
  8
L31
 39
1.125
  5
86
 10
65.223
 20
329.882
 30
0.0
 11
65.223
 21
273.382
 31
0.0
  0
SOLID
  8
L31
 39
1.125
  5
87
 10
65.223
 20
276.882
 30
0.0
 11
65.223
 21
276.882
 31
0.0
 12
51.223
 22
273.382
 32
0.0
 13
51.223
 23
280.382
 33
0.0
  0
LINE
  8
L31
 39
1.125
  5
88
 10
94.223
 20
276.882
 30
0.0
 11
30.223
 21
276.882
 31
0.0
  0
TEXT
  8
L31
 39
1.125
  5
89
 10
37.223
 20
285.282
 30
0.0
 40
14.000
  1
8
 41
0.75
 72
     1
 11
40.723
 21
285.282
 31
0.0
  0
LINE
  8
L31
 39
1.125
  5
8A
 10
63.223
 20
331.882
 30
0.0
 11
19.723
 21
331.882
 31
0.0
  0
SOLID
  8
L31
 39
1.125
  5
8B
 10
23.223
 20
331.882
 30
0.0
 11
23.223
 21
331.882
 31
0.0
 12
26.723
 22
317.882
 32
0.0
 13
19.723
 23
317.882
 33
0.0
  0
LINE
  8
L31
 39
1.125
  5
8C
 10
63.223
 20
343.882
 30
0.0
 11
19.723
 21
343.882
 31
0.0
  0
SOLID
  8
L31
 39
1.125
  5
8D
 10
23.223
 20
343.882
 30
0.0
 11
23.223
 21
343.882
 31
0.0
 12
19.723
 22
357.882
 32
0.0
 13
26.723
 23
357.882
 33
0.0
  0
LINE
  8
L31
 39
1.125
  5
8E
 10
23.223
 20
310.882
 30
0.0
 11
23.223
 21
364.882
 31
0.0
  0
TEXT
  8
L31
 39
1.125
  5
8F
 10
14.823
 20
330.882
 30
0.0
 40
14.000
  1
12
 50
90.0
 41
0.75
 72
     1
 11
14.823
 21
337.882
 31
0.0
  0
LINE
  8
L03
 39
1.850
  5
2
 10
673.030
 20
219.882
 30
0.0
 11
673.030
 21
337.882
 31
0.0
  0
LINE
  8
L03
 39
1.850
  5
3
 10
760.233
 20
181.132
 30
0.0
 11
720.030
 21
181.132
 31
0.0
  0
LINE
  8
L03
 39
1.850
  5
4
 10
420.030
 20
188.632
 30
0.0
 11
405.030
 21
188.632
 31
0.0
  0
LINE
  8
L03
 39
1.850
  5
5
 10
673.030
 20
337.882
 30
0.0
 11
673.030
 21
219.882
 31
0.0
  0
LINE
  8
L11
 39
0.925
  5
6
 10
679.030
 20
486.632
 30
0.0
 11
679.030
 21
505.882
 31
0.0
  0
LINE
  8
L11
 39
0.925
  5
7
 10
673.030
 20
337.882
 30
0.0
 11
817.030
 21
337.882
 31
0.0
  0
LINE
  8
L03
 62
     8
 39
1.000
  5
8
 10
760.233
 20
486.632
 30
0.0
 11
760.233
 21
189.132
 31
0.0
  0
LINE
  8
L03
 39
1.850
  5
9
 10
674.030
 20
497.882
 30
0.0
 11
674.030
 21
494.632
 31
0.0
  0
LINE
  8
L03
 39
1.850
  5
A
 10
684.030
 20
497.882
 30
0.0
 11
674.030
 21
497.882
 31
0.0
  0
LINE
  8
L03
 39
1.850
  5
B
 10
684.030
 20
494.632
 30
0.0
 11
684.030
 21
497.882
 31
0.0
  0
LINE
  8
L03
 39
1.850
  5
C
 10
674.030
 20
494.632
 30
0.0
 11
684.030
 21
494.632
 31
0.0
  0
LINE
  8
L03
 39
1.850
  5
D
 10
578.249
 20
487.882
 30
0.0
 11
673.030
 21
487.882
 31
0.0
  0
LINE
  8
L03
 39
1.850
  5
E
 10
405.030
 20
487.132
 30
0.0
 11
412.779
 21
487.132
 31
0.0
  0
LINE
  8
L03
 39
1.850
  5
F
 10
405.030
 20
337.882
 30
0.0
 11
405.030
 21
487.132
 31
0.0
  0
LINE
  8
L03
 39
1.850
  5
10
 10
673.030
 20
487.882
 30
0.0
 11
673.030
 21
337.882
 31
0.0
  0
LINE
  8
L03
 39
1.850
  5
11
 10
405.030
 20
188.632
 30
0.0
 11
405.030
 21
337.882
 31
0.0
  0
LINE
  8
L03
 39
1.850
  5
12
 10
422.030
 20
259.882
 30
0.0
 11
673.030
 21
259.882
 31
0.0
  0
LINE
  8
L03
 39
1.850
  5
13
 10
422.030
 20
269.882
 30
0.0
 11
673.030
 21
269.882
 31
0.0
  0
LINE
  8
L03
 39
1.850
  5
14
 10
422.030
 20
279.882
 30
0.0
 11
673.030
 21
279.882
 31
0.0
  0
LINE
  8
L03
 39
1.850
  5
15
 10
422.030
 20
289.882
 30
0.0
 11
673.030
 21
289.882
 31
0.0
  0
LINE
  8
L03
 39
1.850
  5
16
 10
422.030
 20
299.882
 30
0.0
 11
673.030
 21
299.882
 31
0.0
  0
LINE
  8
L03
 39
1.850
  5
17
 10
422.030
 20
309.882
 30
0.0
 11
673.030
 21
309.882
 31
0.0
  0
LINE
  8
L03
 39
1.850
  5
18
 10
422.030
 20
415.882
 30
0.0
 11
673.030
 21
415.882
 31
0.0
  0
LINE
  8
L03
 39
1.850
  5
19
 10
422.030
 20
405.882
 30
0.0
 11
673.030
 21
405.882
 31
0.0
  0
LINE
  8
L03
 39
1.850
  5
1A
 10
422.030
 20
395.882
 30
0.0
 11
673.030
 21
395.882
 31
0.0
  0
LINE
  8
L03
 39
1.850
  5
1B
 10
422.030
 20
385.882
 30
0.0
 11
673.030
 21
385.882
 31
0.0
  0
LINE
  8
L03
 39
1.850
  5
1D
 10
422.030
 20
375.882
 30
0.0
 11
673.030
 21
375.882
 31
0.0
  0
LINE
  8
L03
 39
1.850
  5
1E
 10
422.030
 20
365.882
 30
0.0
 11
673.030
 21
365.882
 31
0.0
  0
LINE
  8
L11
 39
0.925
  5
1F
 10
405.030
 20
337.882
 30
0.0
 11
673.030
 21
337.882
 31
0.0
  0
LINE
  8
L03
 39
1.850
  5
21
 10
346.530
 20
337.882
 30
0.0
 11
346.530
 21
372.882
 31
0.0
  0
LINE
  8
L03
 39
1.850
  5
22
 10
346.530
 20
372.882
 30
0.0
 11
352.530
 21
372.882
 31
0.0
  0
LINE
  8
L03
 39
1.850
  5
23
 10
352.530
 20
372.882
 30
0.0
 11
352.530
 21
401.082
 31
0.0
  0
LINE
  8
L03
 39
1.850
  5
24
 10
352.530
 20
401.082
 30
0.0
 11
363.030
 21
401.082
 31
0.0
  0
LINE
  8
L03
 39
1.850
  5
25
 10
363.030
 20
401.082
 30
0.0
 11
368.235
 21
460.568
 31
0.0
  0
LINE
  8
L03
 39
1.850
  5
26
 10
368.235
 20
460.568
 30
0.0
 11
387.030
 21
463.882
 31
0.0
  0
LINE
  8
L03
 39
1.850
  5
27
 10
387.030
 20
463.882
 30
0.0
 11
387.030
 21
485.882
 31
0.0
  0
LINE
  8
L03
 39
1.850
  5
28
 10
387.030
 20
485.882
 30
0.0
 11
405.030
 21
485.882
 31
0.0
  0
LINE
  8
L03
 39
1.850
  5
29
 10
405.030
 20
485.882
 30
0.0
 11
405.030
 21
189.882
 31
0.0
  0
LINE
  8
L03
 39
1.850
  5
2A
 10
405.030
 20
189.882
 30
0.0
 11
387.030
 21
189.882
 31
0.0
  0
LINE
  8
L03
 39
1.850
  5
2B
 10
387.030
 20
189.882
 30
0.0
 11
387.030
 21
211.882
 31
0.0
  0
LINE
  8
L03
 39
1.850
  5
2C
 10
387.030
 20
211.882
 30
0.0
 11
368.235
 21
215.196
 31
0.0
  0
LINE
  8
L03
 39
1.850
  5
2D
 10
368.235
 20
215.196
 30
0.0
 11
363.030
 21
274.682
 31
0.0
  0
LINE
  8
L03
 39
1.850
  5
2E
 10
363.030
 20
274.682
 30
0.0
 11
352.530
 21
274.682
 31
0.0
  0
LINE
  8
L03
 39
1.850
  5
2F
 10
352.530
 20
274.682
 30
0.0
 11
352.530
 21
302.882
 31
0.0
  0
LINE
  8
L03
 39
1.850
  5
30
 10
352.530
 20
302.882
 30
0.0
 11
346.530
 21
302.882
 31
0.0
  0
LINE
  8
L03
 39
1.850
  5
31
 10
346.530
 20
302.882
 30
0.0
 11
346.530
 21
337.882
 31
0.0
  0
LINE
  8
L03
 39
1.850
  5
32
 10
352.530
 20
372.882
 30
0.0
 11
352.530
 21
302.882
 31
0.0
  0
LINE
  8
L03
 39
1.850
  5
33
 10
363.030
 20
401.082
 30
0.0
 11
363.030
 21
274.682
 31
0.0
  0
LINE
  8
L03
 39
1.850
  5
34
 10
368.235
 20
460.568
 30
0.0
 11
368.235
 21
215.196
 31
0.0
  0
LINE
  8
L03
 39
1.850
  5
35
 10
387.030
 20
463.882
 30
0.0
 11
387.030
 21
211.882
 31
0.0
  0
LINE
  8
L11
 39
0.925
  5
36
 10
346.530
 20
337.882
 30
0.0
 11
405.030
 21
337.882
 31
0.0
  0
LINE
  8
L03
 39
1.850
  5
37
 10
346.530
 20
315.382
 30
0.0
 11
335.030
 21
315.382
 31
0.0
  0
LINE
  8
L03
 39
1.850
  5
38
 10
335.030
 20
315.382
 30
0.0
 11
335.030
 21
316.882
 31
0.0
  0
LINE
  8
L03
 39
1.850
  5
39
 10
335.030
 20
316.882
 30
0.0
 11
225.030
 21
316.882
 31
0.0
  0
LINE
  8
L03
 39
1.850
  5
90
 10
225.030
 20
316.882
 30
0.0
 11
225.030
 21
337.882
 31
0.0
  0
LINE
  8
L03
 39
1.850
  5
91
 10
225.030
 20
337.882
 30
0.0
 11
225.030
 21
358.882
 31
0.0
  0
LINE
  8
L03
 39
1.850
  5
3A
 10
225.030
 20
358.882
 30
0.0
 11
335.030
 21
358.882
 31
0.0
  0
LINE
  8
L03
 39
1.850
  5
93
 10
335.030
 20
358.882
 30
0.0
 11
335.030
 21
360.382
 31
0.0
  0
LINE
  8
L03
 39
1.850
  5
94
 10
335.030
 20
360.382
 30
0.0
 11
346.530
 21
360.382
 31
0.0
  0
ARC
  8
L03
 39
1.850
  5
95
 10
241.030
 20
337.882
 30
0.0
 40
6.000
 50
180.0
 51
270.0
  0
ARC
  8
L03
 39
1.850
  5
96
 10
241.030
 20
337.882
 30
0.0
 40
6.000
 50
90.0
 51
180.0
  0
LINE
  8
L03
 39
1.850
  5
97
 10
241.030
 20
343.882
 30
0.0
 11
319.030
 21
343.882
 31
0.0
  0
ARC
  8
L03
 39
1.850
  5
98
 10
319.030
 20
337.882
 30
0.0
 40
6.000
 50
0.0
 51
90.0
  0
ARC
  8
L03
 39
1.850
  5
99
 10
319.030
 20
337.882
 30
0.0
 40
6.000
 50
270.0
 51
0.0
  0
LINE
  8
L03
 39
1.850
  5
9A
 10
319.030
 20
331.882
 30
0.0
 11
241.030
 21
331.882
 31
0.0
  0
LINE
  8
L03
 39
1.850
  5
9B
 10
335.030
 20
316.882
 30
0.0
 11
335.030
 21
358.882
 31
0.0
  0
LINE
  8
L11
 39
0.925
  5
9C
 10
217.030
 20
337.882
 30
0.0
 11
346.530
 21
337.882
 31
0.0
  0
LINE
  8
L03
 39
1.850
  5
9D
 10
673.030
 20
337.882
 30
0.0
 11
673.030
 21
494.632
 31
0.0
  0
LINE
  8
L03
 39
1.850
  5
9E
 10
673.030
 20
494.632
 30
0.0
 11
760.233
 21
494.632
 31
0.0
  0
LINE
  8
L03
 39
1.850
  5
9F
 10
760.233
 20
494.632
 30
0.0
 11
813.030
 21
453.382
 31
0.0
  0
LINE
  8
L03
 39
1.850
  5
A0
 10
813.030
 20
453.382
 30
0.0
 11
813.030
 21
222.382
 31
0.0
  0
LINE
  8
L03
 39
1.850
  5
A1
 10
813.030
 20
222.382
 30
0.0
 11
760.233
 21
181.132
 31
0.0
  0
LINE
  8
L03
 39
1.850
  5
A2
 10
411.653
 20
461.333
 30
0.0
 11
413.030
 21
492.882
 31
0.0
  0
LINE
  8
L03
 39
1.850
  5
A3
 10
413.030
 20
492.882
 30
0.0
 11
578.030
 21
492.882
 31
0.0
  0
LINE
  8
L03
 39
1.850
  5
A4
 10
578.030
 20
492.882
 30
0.0
 11
579.408
 21
461.333
 31
0.0
  0
LINE
  8
L03
 39
1.850
  5
A5
 10
570.030
 20
180.882
 30
0.0
 11
477.030
 21
180.882
 31
0.0
  0
LINE
  8
L03
 39
1.850
  5
A6
 10
477.030
 20
180.882
 30
0.0
 11
477.030
 21
177.882
 31
0.0
  0
LINE
  8
L03
 39
1.850
  5
A7
 10
477.030
 20
177.882
 30
0.0
 11
420.030
 21
177.882
 31
0.0
  0
LINE
  8
L03
 39
1.850
  5
A8
 10
420.030
 20
177.882
 30
0.0
 11
420.030
 21
195.882
 31
0.0
  0
LINE
  8
L03
 39
1.850
  5
A9
 10
420.030
 20
195.882
 30
0.0
 11
447.030
 21
195.882
 31
0.0
  0
LINE
  8
L03
 39
1.850
  5
AA
 10
447.030
 20
195.882
 30
0.0
 11
447.030
 21
219.882
 31
0.0
  0
LINE
  8
L03
 39
1.850
  5
AB
 10
447.030
 20
219.882
 30
0.0
 11
570.030
 21
219.882
 31
0.0
  0
LINE
  8
L03
 39
1.850
  5
AC
 10
570.030
 20
180.882
 30
0.0
 11
663.030
 21
180.882
 31
0.0
  0
LINE
  8
L03
 39
1.850
  5
AD
 10
663.030
 20
180.882
 30
0.0
 11
663.030
 21
177.882
 31
0.0
  0
LINE
  8
L03
 39
1.850
  5
AE
 10
663.030
 20
177.882
 30
0.0
 11
720.030
 21
177.882
 31
0.0
  0
LINE
  8
L03
 39
1.850
  5
AF
 10
720.030
 20
177.882
 30
0.0
 11
720.030
 21
195.882
 31
0.0
  0
LINE
  8
L03
 39
1.850
  5
B0
 10
720.030
 20
195.882
 30
0.0
 11
693.030
 21
195.882
 31
0.0
  0
LINE
  8
L03
 39
1.850
  5
B1
 10
693.030
 20
195.882
 30
0.0
 11
693.030
 21
219.882
 31
0.0
  0
LINE
  8
L03
 39
1.850
  5
B2
 10
693.030
 20
219.882
 30
0.0
 11
570.030
 21
219.882
 31
0.0
  0
LINE
  8
L03
 39
1.850
  5
B3
 10
473.530
 20
219.882
 30
0.0
 11
473.530
 21
195.882
 31
0.0
  0
LINE
  8
L03
 39
1.850
  5
B4
 10
473.530
 20
195.882
 30
0.0
 11
477.030
 21
195.882
 31
0.0
  0
LINE
  8
L03
 39
1.850
  5
B5
 10
477.030
 20
195.882
 30
0.0
 11
477.030
 21
180.882
 31
0.0
  0
LINE
  8
L03
 39
1.850
  5
B6
 10
666.530
 20
219.882
 30
0.0
 11
666.530
 21
195.882
 31
0.0
  0
LINE
  8
L03
 39
1.850
  5
B7
 10
666.530
 20
195.882
 30
0.0
 11
663.030
 21
195.882
 31
0.0
  0
LINE
  8
L03
 39
1.850
  5
B8
 10
663.030
 20
195.882
 30
0.0
 11
663.030
 21
180.882
 31
0.0
  0
LINE
  8
L03
 62
     8
 39
1.000
  5
B9
 10
655.030
 20
195.882
 30
0.0
 11
485.030
 21
195.882
 31
0.0
  0
LINE
  8
L03
 62
     8
 39
1.000
  5
BA
 10
693.030
 20
195.882
 30
0.0
 11
666.530
 21
195.882
 31
0.0
  0
LINE
  8
L03
 62
     8
 39
1.000
  5
BB
 10
447.030
 20
195.882
 30
0.0
 11
473.530
 21
195.882
 31
0.0
  0
LINE
  8
L11
 39
0.925
  5
BC
 10
443.030
 20
199.882
 30
0.0
 11
443.030
 21
173.882
 31
0.0
  0
LINE
  8
L05
 39
1.295
  5
BD
 10
435.530
 20
195.882
 30
0.0
 11
435.530
 21
177.882
 31
0.0
  0
LINE
  8
L05
 39
1.295
  5
BE
 10
450.530
 20
195.882
 30
0.0
 11
450.530
 21
177.882
 31
0.0
  0
LINE
  8
L11
 39
0.925
  5
BF
 10
697.030
 20
199.882
 30
0.0
 11
697.030
 21
173.882
 31
0.0
  0
LINE
  8
L05
 39
1.295
  5
C0
 10
689.530
 20
195.882
 30
0.0
 11
689.530
 21
177.882
 31
0.0
  0
LINE
  8
L05
 39
1.295
  5
C1
 10
704.530
 20
195.882
 30
0.0
 11
704.530
 21
177.882
 31
0.0
  0
LINE
  8
L03
 39
1.850
  5
C2
 10
413.030
 20
492.882
 30
0.0
 11
414.864
 21
534.882
 31
0.0
  0
LINE
  8
L03
 39
1.850
  5
C3
 10
414.864
 20
534.882
 30
0.0
 11
576.196
 21
534.882
 31
0.0
  0
LINE
  8
L03
 39
1.850
  5
C4
 10
576.196
 20
534.882
 30
0.0
 11
578.030
 21
492.882
 31
0.0
  0
LINE
  8
L03
 39
1.850
  5
C5
 10
578.030
 20
492.882
 30
0.0
 11
413.030
 21
492.882
 31
0.0
  0
LINE
  8
L03
 39
1.850
  5
C6
 10
413.030
 20
492.882
 30
0.0
 11
578.030
 21
492.882
 31
0.0
  0
LINE
  8
L11
 39
0.925
  5
C7
 10
495.530
 20
538.882
 30
0.0
 11
495.530
 21
488.882
 31
0.0
  0
LINE
  8
L11
 39
0.925
  5
C8
 10
444.380
 20
464.882
 30
0.0
 11
492.680
 21
464.882
 31
0.0
  0
LINE
  8
L11
 39
0.925
  5
C9
 10
468.530
 20
440.732
 30
0.0
 11
468.530
 21
489.032
 31
0.0
  0
CIRCLE
  8
L03
 39
1.850
  5
CA
 10
468.530
 20
464.882
 30
0.0
 40
20.150
  0
LINE
  8
L11
 39
0.925
  5
CB
 10
498.380
 20
464.882
 30
0.0
 11
546.680
 21
464.882
 31
0.0
  0
LINE
  8
L11
 39
0.925
  5
CC
 10
522.530
 20
440.732
 30
0.0
 11
522.530
 21
489.032
 31
0.0
  0
CIRCLE
  8
L03
 39
1.850
  5
CD
 10
522.530
 20
464.882
 30
0.0
 40
20.150
  0
LINE
  8
L03
 39
1.850
  5
CE
 10
563.030
 20
415.882
 30
0.0
 11
563.030
 21
447.882
 31
0.0
  0
LINE
  8
L03
 39
1.850
  5
CF
 10
563.030
 20
447.882
 30
0.0
 11
553.030
 21
447.882
 31
0.0
  0
LINE
  8
L03
 39
1.850
  5
D0
 10
553.030
 20
447.882
 30
0.0
 11
553.030
 21
460.382
 31
0.0
  0
LINE
  8
L03
 39
1.850
  5
D1
 10
553.030
 20
460.382
 30
0.0
 11
553.030
 21
469.441
 31
0.0
  0
LINE
  8
L03
 39
1.850
  5
D2
 10
553.030
 20
469.441
 30
0.0
 11
563.030
 21
469.441
 31
0.0
  0
LINE
  8
L03
 39
1.850
  5
D3
 10
563.030
 20
469.441
 30
0.0
 11
563.030
 21
460.382
 31
0.0
  0
LINE
  8
L03
 39
1.850
  5
D4
 10
563.030
 20
460.382
 30
0.0
 11
573.030
 21
460.382
 31
0.0
  0
LINE
  8
L03
 39
1.850
  5
D5
 10
573.030
 20
460.382
 30
0.0
 11
573.030
 21
415.882
 31
0.0
  0
LINE
  8
L03
 39
1.850
  5
D6
 10
553.030
 20
460.382
 30
0.0
 11
563.030
 21
460.382
 31
0.0
  0
LINE
  8
L03
 39
1.850
  5
D7
 10
563.030
 20
460.382
 30
0.0
 11
563.030
 21
447.882
 31
0.0
  0
LINE
  8
L03
 39
1.850
  5
D8
 10
573.030
 20
415.882
 30
0.0
 11
563.030
 21
415.882
 31
0.0
  0
LINE
  8
L11
 39
0.925
  5
D9
 10
549.030
 20
433.882
 30
0.0
 11
581.030
 21
433.882
 31
0.0
  0
LINE
  8
L31
 39
1.125
  5
DA
 10
450.530
 20
134.382
 30
0.0
 11
450.530
 21
94.382
 31
0.0
  0
LINE
  8
L31
 39
1.125
  5
DB
 10
450.530
 20
175.882
 30
0.0
 11
450.530
 21
141.382
 31
0.0
  0
LINE
  8
L31
 39
1.125
  5
DC
 10
443.030
 20
94.382
 30
0.0
 11
443.030
 21
54.382
 31
0.0
  0
LINE
  8
L31
 39
1.125
  5
DD
 10
443.030
 20
175.882
 30
0.0
 11
443.030
 21
101.382
 31
0.0
  0
LINE
  8
L31
 39
1.125
  5
DE
 10
443.030
 20
94.382
 30
0.0
 11
443.030
 21
54.382
 31
0.0
  0
LINE
  8
L31
 39
1.125
  5
DF
 10
443.030
 20
175.882
 30
0.0
 11
443.030
 21
101.382
 31
0.0
  0
LINE
  8
L31
 39
1.125
  5
E0
 10
420.030
 20
94.382
 30
0.0
 11
420.030
 21
61.382
 31
0.0
  0
LINE
  8
L31
 39
1.125
  5
E1
 10
420.030
 20
175.882
 30
0.0
 11
420.030
 21
101.382
 31
0.0
  0
LINE
  8
L31
 39
1.125
  5
E2
 10
697.030
 20
94.382
 30
0.0
 11
697.030
 21
54.382
 31
0.0
  0
LINE
  8
L31
 39
1.125
  5
E3
 10
697.030
 20
102.782
 30
0.0
 11
697.030
 21
101.382
 31
0.0
  0
LINE
  8
L31
 39
1.125
  5
E4
 10
697.030
 20
175.882
 30
0.0
 11
697.030
 21
123.782
 31
0.0
  0
LINE
  8
L31
 39
1.125
  5
E5
 10
420.030
 20
54.382
 30
0.0
 11
420.030
 21
14.382
 31
0.0
  0
LINE
  8
L31
 39
1.125
  5
E6
 10
576.255
 20
618.382
 30
0.0
 11
587.805
 21
651.382
 31
0.0
  0
LINE
  8
L31
 39
1.125
  5
E7
 10
522.530
 20
464.882
 30
0.0
 11
573.805
 21
611.382
 31
0.0
  0
LINE
  8
L31
 39
1.125
  5
E8
 10
555.411
 20
618.382
 30
0.0
 11
574.089
 21
651.382
 31
0.0
  0
LINE
  8
L31
 39
1.125
  5
E9
 10
468.530
 20
464.882
 30
0.0
 11
551.449
 21
611.382
 31
0.0
  0
LINE
  8
L31
 39
1.125
  5
EA
 10
576.255
 20
618.382
 30
0.0
 11
587.805
 21
651.382
 31
0.0
  0
LINE
  8
L31
 39
1.125
  5
EB
 10
522.530
 20
464.882
 30
0.0
 11
573.805
 21
611.382
 31
0.0
  0
LINE
  8
L31
 39
1.125
  5
EC
 10
590.255
 20
658.382
 30
0.0
 11
610.030
 21
714.882
 31
0.0
  0
LINE
  8
L31
 39
1.125
  5
ED
 10
578.051
 20
658.382
 30
0.0
 11
610.030
 21
714.882
 31
0.0
  0
LINE
  8
L31
 39
1.125
  5
EE
 10
590.255
 20
658.382
 30
0.0
 11
610.030
 21
714.882
 31
0.0
  0
CIRCLE
  8
L31
 39
1.125
  5
EF
 10
522.530
 20
464.882
 30
0.0
 40
1.400
  0
CIRCLE
  8
L31
 39
1.125
  5
F0
 10
522.530
 20
464.882
 30
0.0
 40
0.467
  0
TEXT
  8
L31
 39
1.125
  5
F1
 10
612.343
 20
721.489
 30
0.0
 40
14.000
  1
2x f. M40x1.5  2x gegenueber / opposite
 41
0.75
 72
    -1
 11
612.343
 21
721.489
 31
0.0
  0
CIRCLE
  8
L31
 39
1.125
  5
F2
 10
468.530
 20
464.882
 30
0.0
 40
1.400
  0
CIRCLE
  8
L31
 39
1.125
  5
F3
 10
468.530
 20
464.882
 30
0.0
 40
0.467
  0
CIRCLE
  8
L31
 39
1.125
  5
F4
 10
522.530
 20
464.882
 30
0.0
 40
1.400
  0
CIRCLE
  8
L31
 39
1.125
  5
F5
 10
522.530
 20
464.882
 30
0.0
 40
0.467
  0
LINE
  8
L31
 39
1.125
  5
F6
 10
542.680
 20
464.882
 30
0.0
 11
714.530
 21
464.882
 31
0.0
  0
SOLID
  8
L31
 39
1.125
  5
F7
 10
711.030
 20
464.882
 30
0.0
 11
711.030
 21
464.882
 31
0.0
 12
714.530
 22
450.882
 32
0.0
 13
707.530
 23
450.882
 33
0.0
  0
LINE
  8
L31
 39
1.125
  5
F8
 10
685.030
 20
337.882
 30
0.0
 11
714.530
 21
337.882
 31
0.0
  0
SOLID
  8
L31
 39
1.125
  5
F9
 10
711.030
 20
337.882
 30
0.0
 11
711.030
 21
337.882
 31
0.0
 12
707.530
 22
351.882
 32
0.0
 13
714.530
 23
351.882
 33
0.0
  0
LINE
  8
L31
 39
1.125
  5
FA
 10
711.030
 20
464.882
 30
0.0
 11
711.030
 21
337.882
 31
0.0
  0
TEXT
  8
L31
 39
1.125
  5
FB
 10
702.630
 20
389.132
 30
0.0
 40
14.000
  1
127
 50
90.0
 41
0.75
 72
     1
 11
702.630
 21
401.382
 31
0.0
  0
LINE
  8
L31
 39
1.125
  5
FC
 10
686.030
 20
497.882
 30
0.0
 11
856.530
 21
497.882
 31
0.0
  0
SOLID
  8
L31
 39
1.125
  5
FD
 10
853.030
 20
497.882
 30
0.0
 11
853.030
 21
497.882
 31
0.0
 12
856.530
 22
483.882
 32
0.0
 13
849.530
 23
483.882
 33
0.0
  0
LINE
  8
L31
 39
1.125
  5
FE
 10
853.030
 20
497.882
 30
0.0
 11
853.030
 21
283.482
 31
0.0
  0
TEXT
  8
L31
 39
1.125
  5
FF
 10
844.630
 20
319.507
 30
0.0
 40
14.000
  1
%%c320
 50
90.0
 41
0.75
 72
     1
 11
844.630
 21
337.882
 31
0.0
  0
LINE
  8
L31
 39
1.125
  5
100
 10
225.030
 20
360.882
 30
0.0
 11
225.030
 21
658.382
 31
0.0
  0
SOLID
  8
L31
 39
1.125
  5
101
 10
225.030
 20
654.882
 30
0.0
 11
225.030
 21
654.882
 31
0.0
 12
239.030
 22
658.382
 32
0.0
 13
239.030
 23
651.382
 33
0.0
  0
LINE
  8
L31
 39
1.125
  5
102
 10
813.030
 20
455.382
 30
0.0
 11
813.030
 21
658.382
 31
0.0
  0
SOLID
  8
L31
 39
1.125
  5
103
 10
813.030
 20
654.882
 30
0.0
 11
813.030
 21
654.882
 31
0.0
 12
799.030
 22
651.382
 32
0.0
 13
799.030
 23
658.382
 33
0.0
  0
LINE
  8
L31
 39
1.125
  5
104
 10
225.030
 20
654.882
 30
0.0
 11
813.030
 21
654.882
 31
0.0
  0
TEXT
  8
L31
 39
1.125
  5
105
 10
505.030
 20
663.282
 30
0.0
 40
14.000
  1
588
 41
0.75
 72
     1
 11
519.030
 21
663.282
 31
0.0
  0
LINE
  8
L31
 39
1.125
  5
106
 10
335.030
 20
313.382
 30
0.0
 11
335.030
 21
249.882
 31
0.0
  0
SOLID
  8
L31
 39
1.125
  5
107
 10
335.030
 20
253.382
 30
0.0
 11
335.030
 21
253.382
 31
0.0
 12
321.030
 22
249.882
 32
0.0
 13
321.030
 23
256.882
 33
0.0
  0
LINE
  8
L31
 39
1.125
  5
108
 10
225.030
 20
314.882
 30
0.0
 11
225.030
 21
249.882
 31
0.0
  0
SOLID
  8
L31
 39
1.125
  5
109
 10
225.030
 20
253.382
 30
0.0
 11
225.030
 21
253.382
 31
0.0
 12
239.030
 22
256.882
 32
0.0
 13
239.030
 23
249.882
 33
0.0
  0
LINE
  8
L31
 39
1.125
  5
10A
 10
335.030
 20
253.382
 30
0.0
 11
225.030
 21
253.382
 31
0.0
  0
TEXT
  8
L31
 39
1.125
  5
10B
 10
259.905
 20
261.782
 30
0.0
 40
14.000
  1
110
 41
0.75
 72
     1
 11
269.530
 21
261.782
 31
0.0
  0
TEXT
  8
L31
 39
1.125
  5
10C
 10
283.355
 20
260.382
 30
0.0
 40
7.000
  1
-0.5
 41
0.75
  0
LINE
  8
L31
 39
1.125
  5
10D
 10
223.030
 20
316.882
 30
0.0
 11
179.530
 21
316.882
 31
0.0
  0
SOLID
  8
L31
 39
1.125
  5
10E
 10
183.030
 20
316.882
 30
0.0
 11
183.030
 21
316.882
 31
0.0
 12
179.530
 22
330.882
 32
0.0
 13
186.530
 23
330.882
 33
0.0
  0
LINE
  8
L31
 39
1.125
  5
10F
 10
223.030
 20
358.882
 30
0.0
 11
179.530
 21
358.882
 31
0.0
  0
SOLID
  8
L31
 39
1.125
  5
110
 10
183.030
 20
358.882
 30
0.0
 11
183.030
 21
358.882
 31
0.0
 12
186.530
 22
344.882
 32
0.0
 13
179.530
 23
344.882
 33
0.0
  0
LINE
  8
L31
 39
1.125
  5
111
 10
183.030
 20
316.882
 30
0.0
 11
183.030
 21
358.882
 31
0.0
  0
TEXT
  8
L31
 39
1.125
  5
112
 10
174.630
 20
317.582
 30
0.0
 40
14.000
  1
%%c42
 50
90.0
 41
0.75
 72
     1
 11
174.630
 21
331.582
 31
0.0
  0
TEXT
  8
L31
 39
1.125
  5
113
 10
176.030
 20
349.782
 30
0.0
 40
7.000
  1
k6
 50
90.0
 41
0.75
  0
LINE
  8
L31
 39
1.125
  5
114
 10
325.030
 20
339.882
 30
0.0
 11
325.030
 21
443.882
 31
0.0
  0
SOLID
  8
L31
 39
1.125
  5
115
 10
325.030
 20
440.382
 30
0.0
 11
325.030
 21
440.382
 31
0.0
 12
311.030
 22
436.882
 32
0.0
 13
311.030
 23
443.882
 33
0.0
  0
LINE
  8
L31
 39
1.125
  5
116
 10
335.030
 20
362.382
 30
0.0
 11
335.030
 21
443.882
 31
0.0
  0
SOLID
  8
L31
 39
1.125
  5
117
 10
335.030
 20
440.382
 30
0.0
 11
335.030
 21
440.382
 31
0.0
 12
349.030
 22
443.882
 32
0.0
 13
349.030
 23
436.882
 33
0.0
  0
LINE
  8
L31
 39
1.125
  5
118
 10
284.780
 20
440.382
 30
0.0
 11
356.030
 21
440.382
 31
0.0
  0
TEXT
  8
L31
 39
1.125
  5
119
 10
291.780
 20
448.782
 30
0.0
 40
14.000
  1
10
 41
0.75
 72
     1
 11
297.905
 21
448.782
 31
0.0
  0
LINE
  8
L31
 39
1.125
  5
11A
 10
235.030
 20
339.882
 30
0.0
 11
235.030
 21
403.882
 31
0.0
  0
SOLID
  8
L31
 39
1.125
  5
11B
 10
235.030
 20
400.382
 30
0.0
 11
235.030
 21
400.382
 31
0.0
 12
249.030
 22
403.882
 32
0.0
 13
249.030
 23
396.882
 33
0.0
  0
LINE
  8
L31
 39
1.125
  5
11C
 10
325.030
 20
339.882
 30
0.0
 11
325.030
 21
403.882
 31
0.0
  0
SOLID
  8
L31
 39
1.125
  5
11D
 10
325.030
 20
400.382
 30
0.0
 11
325.030
 21
400.382
 31
0.0
 12
311.030
 22
396.882
 32
0.0
 13
311.030
 23
403.882
 33
0.0
  0
LINE
  8
L31
 39
1.125
  5
11E
 10
235.030
 20
400.382
 30
0.0
 11
325.030
 21
400.382
 31
0.0
  0
TEXT
  8
L31
 39
1.125
  5
11F
 10
272.155
 20
408.782
 30
0.0
 40
14.000
  1
90
 41
0.75
 72
     1
 11
280.030
 21
408.782
 31
0.0
  0
LINE
  8
L31
 39
1.125
  5
120
 10
413.030
 20
494.882
 30
0.0
 11
413.030
 21
618.382
 31
0.0
  0
SOLID
  8
L31
 39
1.125
  5
121
 10
413.030
 20
614.882
 30
0.0
 11
413.030
 21
614.882
 31
0.0
 12
427.030
 22
618.382
 32
0.0
 13
427.030
 23
611.382
 33
0.0
  0
LINE
  8
L31
 39
1.125
  5
122
 10
578.030
 20
494.882
 30
0.0
 11
578.030
 21
618.382
 31
0.0
  0
SOLID
  8
L31
 39
1.125
  5
123
 10
578.030
 20
614.882
 30
0.0
 11
578.030
 21
614.882
 31
0.0
 12
564.030
 22
611.382
 32
0.0
 13
564.030
 23
618.382
 33
0.0
  0
LINE
  8
L31
 39
1.125
  5
124
 10
413.030
 20
614.882
 30
0.0
 11
578.030
 21
614.882
 31
0.0
  0
TEXT
  8
L31
 39
1.125
  5
125
 10
483.280
 20
623.282
 30
0.0
 40
14.000
  1
165
 41
0.75
 72
     1
 11
495.530
 21
623.282
 31
0.0
  0
LINE
  8
L31
 39
1.125
  5
126
 10
468.530
 20
485.032
 30
0.0
 11
468.530
 21
578.382
 31
0.0
  0
SOLID
  8
L31
 39
1.125
  5
127
 10
468.530
 20
574.882
 30
0.0
 11
468.530
 21
574.882
 31
0.0
 12
482.530
 22
578.382
 32
0.0
 13
482.530
 23
571.382
 33
0.0
  0
LINE
  8
L31
 39
1.125
  5
128
 10
522.530
 20
485.032
 30
0.0
 11
522.530
 21
578.382
 31
0.0
  0
SOLID
  8
L31
 39
1.125
  5
129
 10
522.530
 20
574.882
 30
0.0
 11
522.530
 21
574.882
 31
0.0
 12
508.530
 22
571.382
 32
0.0
 13
508.530
 23
578.382
 33
0.0
  0
LINE
  8
L31
 39
1.125
  5
12A
 10
468.530
 20
574.882
 30
0.0
 11
522.530
 21
574.882
 31
0.0
  0
TEXT
  8
L31
 39
1.125
  5
12B
 10
486.780
 20
583.282
 30
0.0
 40
14.000
  1
54
 41
0.75
 72
     1
 11
495.530
 21
583.282
 31
0.0
  0
LINE
  8
L31
 39
1.125
  5
12C
 10
720.030
 20
175.882
 30
0.0
 11
720.030
 21
14.382
 31
0.0
  0
SOLID
  8
L31
 39
1.125
  5
12D
 10
720.030
 20
17.882
 30
0.0
 11
720.030
 21
17.882
 31
0.0
 12
706.030
 22
14.382
 32
0.0
 13
706.030
 23
21.382
 33
0.0
  0
SOLID
  8
L31
 39
1.125
  5
12E
 10
420.030
 20
17.882
 30
0.0
 11
420.030
 21
17.882
 31
0.0
 12
434.030
 22
21.382
 32
0.0
 13
434.030
 23
14.382
 33
0.0
  0
LINE
  8
L31
 39
1.125
  5
12F
 10
720.030
 20
17.882
 30
0.0
 11
420.030
 21
17.882
 31
0.0
  0
TEXT
  8
L31
 39
1.125
  5
130
 10
557.780
 20
26.282
 30
0.0
 40
14.000
  1
300
 41
0.75
 72
     1
 11
570.030
 21
26.282
 31
0.0
  0
SOLID
  8
L31
 39
1.125
  5
131
 10
443.030
 20
57.882
 30
0.0
 11
443.030
 21
57.882
 31
0.0
 12
429.030
 22
54.382
 32
0.0
 13
429.030
 23
61.382
 33
0.0
  0
LINE
  8
L31
 39
1.125
  5
132
 10
335.030
 20
313.382
 30
0.0
 11
335.030
 21
54.382
 31
0.0
  0
SOLID
  8
L31
 39
1.125
  5
133
 10
335.030
 20
57.882
 30
0.0
 11
335.030
 21
57.882
 31
0.0
 12
349.030
 22
61.382
 32
0.0
 13
349.030
 23
54.382
 33
0.0
  0
LINE
  8
L31
 39
1.125
  5
134
 10
443.030
 20
57.882
 30
0.0
 11
335.030
 21
57.882
 31
0.0
  0
TEXT
  8
L31
 39
1.125
  5
135
 10
377.655
 20
66.282
 30
0.0
 40
14.000
  1
108
 41
0.75
 72
     1
 11
389.030
 21
66.282
 31
0.0
  0
SOLID
  8
L31
 39
1.125
  5
136
 10
697.030
 20
57.882
 30
0.0
 11
697.030
 21
57.882
 31
0.0
 12
683.030
 22
54.382
 32
0.0
 13
683.030
 23
61.382
 33
0.0
  0
SOLID
  8
L31
 39
1.125
  5
137
 10
443.030
 20
57.882
 30
0.0
 11
443.030
 21
57.882
 31
0.0
 12
457.030
 22
61.382
 32
0.0
 13
457.030
 23
54.382
 33
0.0
  0
LINE
  8
L31
 39
1.125
  5
138
 10
697.030
 20
57.882
 30
0.0
 11
443.030
 21
57.882
 31
0.0
  0
TEXT
  8
L31
 39
1.125
  5
139
 10
549.730
 20
66.282
 30
0.0
 40
14.000
  1
254
 41
0.75
 72
     1
 11
563.730
 21
66.282
 31
0.0
  0
TEXT
  8
L31
 39
1.125
  5
13A
 10
581.930
 20
69.782
 30
0.0
 40
7.000
  1
%%p1
 41
0.75
  0
LINE
  8
L31
 39
1.125
  5
13B
 10
720.030
 20
175.882
 30
0.0
 11
720.030
 21
94.382
 31
0.0
  0
SOLID
  8
L31
 39
1.125
  5
13C
 10
720.030
 20
97.882
 30
0.0
 11
720.030
 21
97.882
 31
0.0
 12
706.030
 22
94.382
 32
0.0
 13
706.030
 23
101.382
 33
0.0
  0
LINE
  8
L31
 39
1.125
  5
13D
 10
663.030
 20
175.882
 30
0.0
 11
663.030
 21
94.382
 31
0.0
  0
SOLID
  8
L31
 39
1.125
  5
13E
 10
663.030
 20
97.882
 30
0.0
 11
663.030
 21
97.882
 31
0.0
 12
677.030
 22
101.382
 32
0.0
 13
677.030
 23
94.382
 33
0.0
  0
LINE
  8
L31
 39
1.125
  5
13F
 10
720.030
 20
97.882
 30
0.0
 11
663.030
 21
97.882
 31
0.0
  0
TEXT
  8
L31
 39
1.125
  5
140
 10
682.780
 20
106.282
 30
0.0
 40
14.000
  1
57
 41
0.75
 72
     1
 11
691.530
 21
106.282
 31
0.0
  0
SOLID
  8
L31
 39
1.125
  5
141
 10
450.530
 20
97.882
 30
0.0
 11
450.530
 21
97.882
 31
0.0
 12
464.530
 22
101.382
 32
0.0
 13
464.530
 23
94.382
 33
0.0
  0
LINE
  8
L31
 39
1.125
  5
142
 10
435.530
 20
175.882
 30
0.0
 11
435.530
 21
94.382
 31
0.0
  0
SOLID
  8
L31
 39
1.125
  5
143
 10
435.530
 20
97.882
 30
0.0
 11
435.530
 21
97.882
 31
0.0
 12
421.530
 22
94.382
 32
0.0
 13
421.530
 23
101.382
 33
0.0
  0
LINE
  8
L31
 39
1.125
  5
144
 10
492.530
 20
97.882
 30
0.0
 11
414.530
 21
97.882
 31
0.0
  0
TEXT
  8
L31
 39
1.125
  5
145
 10
471.530
 20
106.282
 30
0.0
 40
14.000
  1
15
 41
0.75
 72
     1
 11
478.530
 21
106.282
 31
0.0
  0
LINE
  8
L31
 39
1.125
  5
146
 10
495.530
 20
490.882
 30
0.0
 11
495.530
 21
134.382
 31
0.0
  0
SOLID
  8
L31
 39
1.125
  5
147
 10
495.530
 20
137.882
 30
0.0
 11
495.530
 21
137.882
 31
0.0
 12
481.530
 22
134.382
 32
0.0
 13
481.530
 23
141.382
 33
0.0
  0
LINE
  8
L31
 39
1.125
  5
148
 10
443.030
 20
175.882
 30
0.0
 11
443.030
 21
134.382
 31
0.0
  0
SOLID
  8
L31
 39
1.125
  5
149
 10
443.030
 20
137.882
 30
0.0
 11
443.030
 21
137.882
 31
0.0
 12
457.030
 22
141.382
 32
0.0
 13
457.030
 23
134.382
 33
0.0
  0
LINE
  8
L31
 39
1.125
  5
14A
 10
495.530
 20
137.882
 30
0.0
 11
443.030
 21
137.882
 31
0.0
  0
TEXT
  8
L31
 39
1.125
  5
14B
 10
453.530
 20
146.282
 30
0.0
 40
14.000
  1
52.5
 41
0.75
 72
     1
 11
469.280
 21
146.282
 31
0.0
  0
LINE
  8
L03
 39
1.850
  5
3B
 10
1379.455
 20
195.882
 30
0.0
 11
1339.170
 21
236.167
 31
0.0
  0
LINE
  8
L03
 39
1.850
  5
3C
 10
1319.455
 20
195.882
 30
0.0
 11
1306.023
 21
209.314
 31
0.0
  0
LINE
  8
L03
 39
1.850
  5
3D
 10
1319.455
 20
180.882
 30
0.0
 11
1296.324
 21
204.013
 31
0.0
  0
LINE
  8
L03
 39
1.850
  5
3E
 10
1079.455
 20
195.882
 30
0.0
 11
1119.719
 21
236.146
 31
0.0
  0
LINE
  8
L03
 39
1.850
  5
3F
 10
1139.455
 20
195.882
 30
0.0
 11
1152.865
 21
209.293
 31
0.0
  0
LINE
  8
L03
 39
1.850
  5
40
 10
1139.455
 20
180.882
 30
0.0
 11
1162.564
 21
203.991
 31
0.0
  0
LINE
  8
L11
 39
0.925
  5
41
 10
1349.455
 20
433.882
 30
0.0
 11
1344.692
 21
433.882
 31
0.0
  0
LINE
  8
L03
 39
1.850
  5
42
 10
1331.455
 20
447.882
 30
0.0
 11
1331.455
 21
447.843
 31
0.0
  0
ARC
  8
L03
 39
1.850
  5
43
 10
1331.455
 20
433.882
 30
0.0
 40
14.000
 50
90.0
 51
90.080193
  0
LINE
  8
L03
 39
1.850
  5
44
 10
1345.455
 20
460.382
 30
0.0
 11
1312.994
 21
469.080
 31
0.0
  0
ARC
  8
L03
 39
1.850
  5
45
 10
1331.455
 20
433.882
 30
0.0
 40
14.000
 50
90.0
 51
90.080193
  0
ARC
  8
L03
 39
1.850
  5
46
 10
1331.455
 20
433.882
 30
0.0
 40
14.000
 50
90.0
 51
90.080193
  0
LINE
  8
L03
 39
1.850
  5
47
 10
1345.455
 20
432.958
 30
0.0
 11
1345.455
 21
447.882
 31
0.0
  0
ARC
  8
L03
 39
1.850
  5
48
 10
1331.455
 20
433.882
 30
0.0
 40
14.000
 50
90.0
 51
90.080193
  0
ARC
  8
L03
 39
1.850
  5
49
 10
1331.455
 20
433.882
 30
0.0
 40
14.000
 50
90.0
 51
90.080193
  0
LINE
  8
L11
 39
0.925
  5
4A
 10
1109.455
 20
433.882
 30
0.0
 11
1114.218
 21
433.882
 31
0.0
  0
LINE
  8
L03
 39
1.850
  5
4B
 10
1127.455
 20
447.882
 30
0.0
 11
1127.455
 21
447.843
 31
0.0
  0
ARC
  8
L03
 39
1.850
  5
4C
 10
1127.455
 20
433.882
 30
0.0
 40
14.000
 50
89.919807
 51
90.0
  0
LINE
  8
L03
 39
1.850
  5
4D
 10
1113.455
 20
460.382
 30
0.0
 11
1145.916
 21
469.080
 31
0.0
  0
ARC
  8
L03
 39
1.850
  5
4E
 10
1127.455
 20
433.882
 30
0.0
 40
14.000
 50
89.919807
 51
90.0
  0
ARC
  8
L03
 39
1.850
  5
4F
 10
1127.455
 20
433.882
 30
0.0
 40
14.000
 50
89.919807
 51
90.0
  0
LINE
  8
L03
 39
1.850
  5
50
 10
1113.455
 20
432.958
 30
0.0
 11
1113.455
 21
447.882
 31
0.0
  0
ARC
  8
L03
 39
1.850
  5
51
 10
1127.455
 20
433.882
 30
0.0
 40
14.000
 50
89.919807
 51
90.0
  0
ARC
  8
L03
 39
1.850
  5
52
 10
1127.455
 20
433.882
 30
0.0
 40
14.000
 50
89.919807
 51
90.0
  0
LINE
  8
L03
 39
1.850
  5
53
 10
1113.455
 20
447.882
 30
0.0
 11
1113.455
 21
460.382
 31
0.0
  0
LINE
  8
L03
 39
1.850
  5
54
 10
1113.455
 20
447.882
 30
0.0
 11
1127.455
 21
447.882
 31
0.0
  0
LINE
  8
L03
 39
1.850
  5
55
 10
1345.455
 20
447.882
 30
0.0
 11
1345.455
 21
460.382
 31
0.0
  0
LINE
  8
L03
 39
1.850
  5
56
 10
1345.455
 20
447.882
 30
0.0
 11
1331.455
 21
447.882
 31
0.0
  0
LINE
  8
L03
 39
1.850
  5
57
 10
1146.955
 20
492.882
 30
0.0
 11
1147.583
 21
528.882
 31
0.0
  0
LINE
  8
L03
 39
1.850
  5
58
 10
1147.583
 20
528.882
 30
0.0
 11
1166.083
 21
528.882
 31
0.0
  0
LINE
  8
L03
 39
1.850
  5
59
 10
1166.083
 20
528.882
 30
0.0
 11
1166.083
 21
530.882
 31
0.0
  0
LINE
  8
L03
 39
1.850
  5
14C
 10
1166.083
 20
530.882
 30
0.0
 11
1174.083
 21
530.882
 31
0.0
  0
LINE
  8
L03
 39
1.850
  5
14D
 10
1174.083
 20
530.882
 30
0.0
 11
1174.083
 21
532.882
 31
0.0
  0
LINE
  8
L03
 39
1.850
  5
14E
 10
1174.083
 20
532.882
 30
0.0
 11
1182.083
 21
532.882
 31
0.0
  0
LINE
  8
L03
 39
1.850
  5
14F
 10
1182.083
 20
532.882
 30
0.0
 11
1182.083
 21
534.882
 31
0.0
  0
LINE
  8
L03
 39
1.850
  5
150
 10
1182.083
 20
534.882
 30
0.0
 11
1276.827
 21
534.882
 31
0.0
  0
LINE
  8
L03
 39
1.850
  5
151
 10
1276.827
 20
534.882
 30
0.0
 11
1276.827
 21
532.882
 31
0.0
  0
LINE
  8
L03
 39
1.850
  5
152
 10
1276.827
 20
532.882
 30
0.0
 11
1284.827
 21
532.882
 31
0.0
  0
LINE
  8
L03
 39
1.850
  5
153
 10
1284.827
 20
532.882
 30
0.0
 11
1284.827
 21
530.882
 31
0.0
  0
LINE
  8
L03
 39
1.850
  5
154
 10
1284.827
 20
530.882
 30
0.0
 11
1292.827
 21
530.882
 31
0.0
  0
LINE
  8
L03
 39
1.850
  5
155
 10
1292.827
 20
530.882
 30
0.0
 11
1292.827
 21
528.882
 31
0.0
  0
LINE
  8
L03
 39
1.850
  5
156
 10
1292.827
 20
528.882
 30
0.0
 11
1311.327
 21
528.882
 31
0.0
  0
LINE
  8
L03
 39
1.850
  5
157
 10
1311.327
 20
528.882
 30
0.0
 11
1311.955
 21
492.882
 31
0.0
  0
LINE
  8
L03
 39
1.850
  5
158
 10
1311.955
 20
492.882
 30
0.0
 11
1146.955
 21
492.882
 31
0.0
  0
LINE
  8
L03
 39
1.850
  5
159
 10
1311.955
 20
492.882
 30
0.0
 11
1146.955
 21
492.882
 31
0.0
  0
LINE
  8
L11
 39
0.925
  5
15A
 10
1229.455
 20
492.882
 30
0.0
 11
1229.455
 21
538.882
 31
0.0
  0
LINE
  8
L03
 39
1.850
  5
15B
 10
1139.455
 20
177.882
 30
0.0
 11
1139.455
 21
180.882
 31
0.0
  0
LINE
  8
L03
 39
1.850
  5
15C
 10
1139.455
 20
180.882
 30
0.0
 11
1139.455
 21
195.882
 31
0.0
  0
LINE
  8
L03
 39
1.850
  5
15D
 10
1139.455
 20
195.882
 30
0.0
 11
1079.455
 21
195.882
 31
0.0
  0
LINE
  8
L03
 39
1.850
  5
15E
 10
1079.455
 20
195.882
 30
0.0
 11
1079.455
 21
177.882
 31
0.0
  0
LINE
  8
L03
 39
1.850
  5
15F
 10
1079.455
 20
177.882
 30
0.0
 11
1139.455
 21
177.882
 31
0.0
  0
LINE
  8
L03
 39
1.850
  5
160
 10
1319.455
 20
177.882
 30
0.0
 11
1319.455
 21
180.882
 31
0.0
  0
LINE
  8
L03
 39
1.850
  5
161
 10
1319.455
 20
180.882
 30
0.0
 11
1319.455
 21
195.882
 31
0.0
  0
LINE
  8
L03
 39
1.850
  5
162
 10
1319.455
 20
195.882
 30
0.0
 11
1379.455
 21
195.882
 31
0.0
  0
LINE
  8
L03
 39
1.850
  5
163
 10
1379.455
 20
195.882
 30
0.0
 11
1379.455
 21
177.882
 31
0.0
  0
LINE
  8
L03
 39
1.850
  5
164
 10
1379.455
 20
177.882
 30
0.0
 11
1319.455
 21
177.882
 31
0.0
  0
LINE
  8
L11
 39
0.925
  5
165
 10
1102.455
 20
169.882
 30
0.0
 11
1102.455
 21
203.882
 31
0.0
  0
LINE
  8
L05
 39
1.295
  5
166
 10
1111.955
 20
177.882
 30
0.0
 11
1111.955
 21
195.882
 31
0.0
  0
LINE
  8
L05
 39
1.295
  5
167
 10
1092.955
 20
177.882
 30
0.0
 11
1092.955
 21
195.882
 31
0.0
  0
LINE
  8
L11
 39
0.925
  5
168
 10
1356.455
 20
169.882
 30
0.0
 11
1356.455
 21
203.882
 31
0.0
  0
LINE
  8
L05
 39
1.295
  5
169
 10
1346.955
 20
177.882
 30
0.0
 11
1346.955
 21
195.882
 31
0.0
  0
LINE
  8
L05
 39
1.295
  5
16A
 10
1365.955
 20
177.882
 30
0.0
 11
1365.955
 21
195.882
 31
0.0
  0
LINE
  8
L03
 39
1.850
  5
16B
 10
1145.618
 20
462.266
 30
0.0
 11
1146.955
 21
492.882
 31
0.0
  0
LINE
  8
L03
 39
1.850
  5
16C
 10
1146.955
 20
492.882
 30
0.0
 11
1311.955
 21
492.882
 31
0.0
  0
LINE
  8
L03
 39
1.850
  5
16D
 10
1311.955
 20
492.882
 30
0.0
 11
1313.292
 21
462.266
 31
0.0
  0
LINE
  8
L11
 39
0.925
  5
16E
 10
1229.455
 20
492.882
 30
0.0
 11
1229.455
 21
462.266
 31
0.0
  0
CIRCLE
  8
L03
 39
1.850
  5
16F
 10
1229.455
 20
337.882
 30
0.0
 40
150.000
  0
CIRCLE
  8
L03
 39
1.850
  5
170
 10
1229.455
 20
337.882
 30
0.0
 40
149.250
  0
CIRCLE
  8
L03
 39
1.850
  5
171
 10
1229.455
 20
337.882
 30
0.0
 40
35.000
  0
CIRCLE
  8
L03
 39
1.850
  5
172
 10
1229.455
 20
337.882
 30
0.0
 40
63.200
  0
CIRCLE
  8
L03
 39
1.850
  5
173
 10
1229.455
 20
337.882
 30
0.0
 40
126.000
  0
CIRCLE
  8
L03
 39
1.850
  5
174
 10
1229.455
 20
337.882
 30
0.0
 40
148.000
  0
LINE
  8
L11
 39
0.925
  5
175
 10
1071.455
 20
337.882
 30
0.0
 11
1387.455
 21
337.882
 31
0.0
  0
LINE
  8
L11
 39
0.925
  5
176
 10
1229.455
 20
179.882
 30
0.0
 11
1229.455
 21
495.882
 31
0.0
  0
POLYLINE
  8
L03
 39
1.850
  5
177
 66
     1
 10
11.455
 20
-945.118
 30
0.0
  0
VERTEX
  8
L03
 39
1.850
  5
178
 10
1249.580
 20
343.882
 30
0.0
  0
VERTEX
  8
L03
 39
1.850
  5
179
 10
1253.455
 20
343.882
 30
0.0
  0
VERTEX
  8
L03
 39
1.850
  5
17A
 10
1253.455
 20
331.882
 30
0.0
  0
VERTEX
  8
L03
 39
1.850
  5
17B
 10
1249.580
 20
331.882
 30
0.0
  0
SEQEND
  8
L03
 39
1.850
  5
17C
  0
ARC
  8
L03
 39
1.850
  5
17D
 10
1229.455
 20
337.882
 30
0.0
 40
22.500
 50
15.46601
 51
-15.46601
  0
CIRCLE
  8
L03
 39
1.850
  5
17E
 10
1229.455
 20
337.882
 30
0.0
 40
21.000
  0
LINE
  8
L31
 39
1.125
  5
17F
 10
1356.455
 20
134.382
 30
0.0
 11
1356.455
 21
94.382
 31
0.0
  0
LINE
  8
L31
 39
1.125
  5
180
 10
1356.455
 20
142.782
 30
0.0
 11
1356.455
 21
141.382
 31
0.0
  0
LINE
  8
L31
 39
1.125
  5
181
 10
1356.455
 20
175.882
 30
0.0
 11
1356.455
 21
163.782
 31
0.0
  0
LINE
  8
L31
 39
1.125
  5
182
 10
1379.455
 20
134.382
 30
0.0
 11
1379.455
 21
54.382
 31
0.0
  0
LINE
  8
L31
 39
1.125
  5
183
 10
1379.455
 20
175.882
 30
0.0
 11
1379.455
 21
141.382
 31
0.0
  0
LINE
  8
L31
 39
1.125
  5
184
 10
1102.455
 20
134.382
 30
0.0
 11
1102.455
 21
94.382
 31
0.0
  0
LINE
  8
L31
 39
1.125
  5
185
 10
1102.455
 20
142.782
 30
0.0
 11
1102.455
 21
141.382
 31
0.0
  0
LINE
  8
L31
 39
1.125
  5
186
 10
1102.455
 20
175.882
 30
0.0
 11
1102.455
 21
163.782
 31
0.0
  0
SOLID
  8
L31
 39
1.125
  5
187
 10
1379.455
 20
57.882
 30
0.0
 11
1379.455
 21
57.882
 31
0.0
 12
1365.455
 22
54.382
 32
0.0
 13
1365.455
 23
61.382
 33
0.0
  0
LINE
  8
L31
 39
1.125
  5
188
 10
1079.455
 20
175.882
 30
0.0
 11
1079.455
 21
54.382
 31
0.0
  0
SOLID
  8
L31
 39
1.125
  5
189
 10
1079.455
 20
57.882
 30
0.0
 11
1079.455
 21
57.882
 31
0.0
 12
1093.455
 22
61.382
 32
0.0
 13
1093.455
 23
54.382
 33
0.0
  0
LINE
  8
L31
 39
1.125
  5
18A
 10
1379.455
 20
57.882
 30
0.0
 11
1079.455
 21
57.882
 31
0.0
  0
TEXT
  8
L31
 39
1.125
  5
18B
 10
1217.205
 20
66.282
 30
0.0
 40
14.000
  1
300
 41
0.75
 72
     1
 11
1229.455
 21
66.282
 31
0.0
  0
SOLID
  8
L31
 39
1.125
  5
18C
 10
1356.455
 20
97.882
 30
0.0
 11
1356.455
 21
97.882
 31
0.0
 12
1342.455
 22
94.382
 32
0.0
 13
1342.455
 23
101.382
 33
0.0
  0
SOLID
  8
L31
 39
1.125
  5
18D
 10
1102.455
 20
97.882
 30
0.0
 11
1102.455
 21
97.882
 31
0.0
 12
1116.455
 22
101.382
 32
0.0
 13
1116.455
 23
94.382
 33
0.0
  0
LINE
  8
L31
 39
1.125
  5
18E
 10
1356.455
 20
97.882
 30
0.0
 11
1102.455
 21
97.882
 31
0.0
  0
TEXT
  8
L31
 39
1.125
  5
18F
 10
1209.155
 20
106.282
 30
0.0
 40
14.000
  1
254
 41
0.75
 72
     1
 11
1223.155
 21
106.282
 31
0.0
  0
TEXT
  8
L31
 39
1.125
  5
190
 10
1241.355
 20
109.782
 30
0.0
 40
7.000
  1
%%p1
 41
0.75
  0
LINE
  8
L31
 39
1.125
  5
191
 10
1139.455
 20
175.882
 30
0.0
 11
1139.455
 21
134.382
 31
0.0
  0
SOLID
  8
L31
 39
1.125
  5
192
 10
1139.455
 20
137.882
 30
0.0
 11
1139.455
 21
137.882
 31
0.0
 12
1125.455
 22
134.382
 32
0.0
 13
1125.455
 23
141.382
 33
0.0
  0
LINE
  8
L31
 39
1.125
  5
193
 10
1079.455
 20
175.882
 30
0.0
 11
1079.455
 21
134.382
 31
0.0
  0
SOLID
  8
L31
 39
1.125
  5
194
 10
1079.455
 20
137.882
 30
0.0
 11
1079.455
 21
137.882
 31
0.0
 12
1093.455
 22
141.382
 32
0.0
 13
1093.455
 23
134.382
 33
0.0
  0
LINE
  8
L31
 39
1.125
  5
195
 10
1139.455
 20
137.882
 30
0.0
 11
1079.455
 21
137.882
 31
0.0
  0
TEXT
  8
L31
 39
1.125
  5
196
 10
1101.580
 20
146.282
 30
0.0
 40
14.000
  1
60
 41
0.75
 72
     1
 11
1109.455
 21
146.282
 31
0.0
  0
LINE
  8
L31
 39
1.125
  5
197
 10
1365.955
 20
175.882
 30
0.0
 11
1365.955
 21
134.382
 31
0.0
  0
SOLID
  8
L31
 39
1.125
  5
198
 10
1365.955
 20
137.882
 30
0.0
 11
1365.955
 21
137.882
 31
0.0
 12
1379.955
 22
141.382
 32
0.0
 13
1379.955
 23
134.382
 33
0.0
  0
LINE
  8
L31
 39
1.125
  5
199
 10
1346.955
 20
175.882
 30
0.0
 11
1346.955
 21
134.382
 31
0.0
  0
SOLID
  8
L31
 39
1.125
  5
19A
 10
1346.955
 20
137.882
 30
0.0
 11
1346.955
 21
137.882
 31
0.0
 12
1332.955
 22
134.382
 32
0.0
 13
1332.955
 23
141.382
 33
0.0
  0
LINE
  8
L31
 39
1.125
  5
19B
 10
1386.955
 20
137.882
 30
0.0
 11
1325.955
 21
137.882
 31
0.0
  0
TEXT
  8
L31
 39
1.125
  5
19C
 10
1349.455
 20
146.282
 30
0.0
 40
14.000
  1
19
 41
0.75
 72
     1
 11
1356.455
 21
146.282
 31
0.0
  0
LINE
  8
L31
 39
1.125
  5
19D
 10
1077.455
 20
177.882
 30
0.0
 11
1035.955
 21
177.882
 31
0.0
  0
SOLID
  8
L31
 39
1.125
  5
19E
 10
1039.455
 20
177.882
 30
0.0
 11
1039.455
 21
177.882
 31
0.0
 12
1042.955
 22
163.882
 32
0.0
 13
1035.955
 23
163.882
 33
0.0
  0
LINE
  8
L31
 39
1.125
  5
19F
 10
1077.455
 20
195.882
 30
0.0
 11
1035.955
 21
195.882
 31
0.0
  0
SOLID
  8
L31
 39
1.125
  5
1A0
 10
1039.455
 20
195.882
 30
0.0
 11
1039.455
 21
195.882
 31
0.0
 12
1035.955
 22
209.882
 32
0.0
 13
1042.955
 23
209.882
 33
0.0
  0
LINE
  8
L31
 39
1.125
  5
1A1
 10
1039.455
 20
156.882
 30
0.0
 11
1039.455
 21
237.882
 31
0.0
  0
TEXT
  8
L31
 39
1.125
  5
1A2
 10
1031.055
 20
216.882
 30
0.0
 40
14.000
  1
18
 50
90.0
 41
0.75
 72
     1
 11
1031.055
 21
223.882
 31
0.0
  0
LINE
  8
L31
 39
1.125
  5
1A3
 10
1077.455
 20
177.882
 30
0.0
 11
995.955
 21
177.882
 31
0.0
  0
SOLID
  8
L31
 39
1.125
  5
1A4
 10
999.455
 20
177.882
 30
0.0
 11
999.455
 21
177.882
 31
0.0
 12
995.955
 22
191.882
 32
0.0
 13
1002.955
 23
191.882
 33
0.0
  0
LINE
  8
L31
 39
1.125
  5
1A5
 10
1077.455
 20
337.882
 30
0.0
 11
995.955
 21
337.882
 31
0.0
  0
SOLID
  8
L31
 39
1.125
  5
1A6
 10
999.455
 20
337.882
 30
0.0
 11
999.455
 21
337.882
 31
0.0
 12
1002.955
 22
323.882
 32
0.0
 13
995.955
 23
323.882
 33
0.0
  0
LINE
  8
L31
 39
1.125
  5
1A7
 10
999.455
 20
177.882
 30
0.0
 11
999.455
 21
337.882
 31
0.0
  0
TEXT
  8
L31
 39
1.125
  5
1A8
 10
991.055
 20
236.007
 30
0.0
 40
14.000
  1
160
 50
90.0
 41
0.75
 72
     1
 11
991.055
 21
247.382
 31
0.0
  0
TEXT
  8
L31
 39
1.125
  5
1A9
 10
992.455
 20
262.957
 30
0.0
 40
7.000
  1
-0.5
 50
90.0
 41
0.75
  0
LINE
  8
L31
 39
1.125
  5
1AA
 10
1279.455
 20
534.882
 30
0.0
 11
1422.955
 21
534.882
 31
0.0
  0
SOLID
  8
L31
 39
1.125
  5
1AB
 10
1419.455
 20
534.882
 30
0.0
 11
1419.455
 21
534.882
 31
0.0
 12
1422.955
 22
520.882
 32
0.0
 13
1415.955
 23
520.882
 33
0.0
  0
LINE
  8
L31
 39
1.125
  5
1AC
 10
1381.455
 20
337.882
 30
0.0
 11
1422.955
 21
337.882
 31
0.0
  0
SOLID
  8
L31
 39
1.125
  5
1AD
 10
1419.455
 20
337.882
 30
0.0
 11
1419.455
 21
337.882
 31
0.0
 12
1415.955
 22
351.882
 32
0.0
 13
1422.955
 23
351.882
 33
0.0
  0
LINE
  8
L31
 39
1.125
  5
1AE
 10
1419.455
 20
534.882
 30
0.0
 11
1419.455
 21
337.882
 31
0.0
  0
TEXT
  8
L31
 39
1.125
  5
1AF
 10
1411.055
 20
424.132
 30
0.0
 40
14.000
  1
197
 50
90.0
 41
0.75
 72
     1
 11
1411.055
 21
436.382
 31
0.0
  0
LINE
  8
L31
 39
1.125
  5
1B0
 10
1146.955
 20
494.882
 30
0.0
 11
1146.955
 21
578.382
 31
0.0
  0
SOLID
  8
L31
 39
1.125
  5
1B1
 10
1146.955
 20
574.882
 30
0.0
 11
1146.955
 21
574.882
 31
0.0
 12
1160.955
 22
578.382
 32
0.0
 13
1160.955
 23
571.382
 33
0.0
  0
LINE
  8
L31
 39
1.125
  5
1B2
 10
1311.955
 20
494.882
 30
0.0
 11
1311.955
 21
578.382
 31
0.0
  0
SOLID
  8
L31
 39
1.125
  5
1B3
 10
1311.955
 20
574.882
 30
0.0
 11
1311.955
 21
574.882
 31
0.0
 12
1297.955
 22
571.382
 32
0.0
 13
1297.955
 23
578.382
 33
0.0
  0
LINE
  8
L31
 39
1.125
  5
1B4
 10
1146.955
 20
574.882
 30
0.0
 11
1311.955
 21
574.882
 31
0.0
  0
TEXT
  8
L31
 39
1.125
  5
1B5
 10
1217.205
 20
583.282
 30
0.0
 40
14.000
  1
165
 41
0.75
 72
     1
 11
1229.455
 21
583.282
 31
0.0
  0
LINE
  5
1B6
  8
EBENE01
 10
-29.812
 20
-206.438
 30
0.0
 11
-29.812
 21
894.150
 31
0.0
  0
LINE
  5
1B7
  8
EBENE01
 10
-29.812
 20
894.150
 30
0.0
 11
1466.133
 21
894.150
 31
0.0
  0
LINE
  5
1B8
  8
EBENE01
 10
1466.133
 20
-206.438
 30
0.0
 11
1466.133
 21
894.150
 31
0.0
  0
LINE
  5
1B9
  8
EBENE01
 10
-29.812
 20
-206.438
 30
0.0
 11
1466.133
 21
-206.438
 31
0.0
  0
LINE
  5
1BA
  8
EBENE01
 62
     4
 10
1120.790
 20
-195.051
 30
0.0
 11
1120.790
 21
-199.334
 31
0.0
  0
LINE
  5
1BB
  8
EBENE01
 62
     4
 10
1135.569
 20
-182.756
 30
0.0
 11
1135.569
 21
-178.558
 31
0.0
  0
LINE
  5
1BC
  8
EBENE01
 62
     4
 10
996.004
 20
-195.051
 30
0.0
 11
996.004
 21
-199.334
 31
0.0
  0
LINE
  5
1BD
  8
EBENE01
 62
     4
 10
1010.783
 20
-182.756
 30
0.0
 11
1010.783
 21
-178.558
 31
0.0
  0
LINE
  5
1BE
  8
EBENE01
 62
     4
 10
1078.466
 20
-178.344
 30
0.0
 11
1078.466
 21
-199.763
 31
0.0
  0
LINE
  5
1BF
  8
EBENE01
 62
     4
 10
1094.316
 20
-178.344
 30
0.0
 11
1078.466
 21
-178.344
 31
0.0
  0
LINE
  5
1C0
  8
EBENE01
 62
     4
 10
1094.316
 20
-182.328
 30
0.0
 11
1094.316
 21
-178.344
 31
0.0
  0
LINE
  5
1C1
  8
EBENE01
 62
     4
 10
1084.806
 20
-182.328
 30
0.0
 11
1094.316
 21
-182.328
 31
0.0
  0
LINE
  5
1C2
  8
EBENE01
 62
     4
 10
1084.806
 20
-187.040
 30
0.0
 11
1084.806
 21
-182.328
 31
0.0
  0
LINE
  5
1C3
  8
EBENE01
 62
     4
 10
1093.159
 20
-187.040
 30
0.0
 11
1084.806
 21
-187.040
 31
0.0
  0
LINE
  5
1C4
  8
EBENE01
 62
     4
 10
1093.159
 20
-190.681
 30
0.0
 11
1093.159
 21
-187.040
 31
0.0
  0
LINE
  5
1C5
  8
EBENE01
 62
     4
 10
1084.806
 20
-190.681
 30
0.0
 11
1093.159
 21
-190.681
 31
0.0
  0
LINE
  5
1C6
  8
EBENE01
 62
     4
 10
1084.806
 20
-195.693
 30
0.0
 11
1084.806
 21
-190.681
 31
0.0
  0
LINE
  5
1C7
  8
EBENE01
 62
     4
 10
1094.530
 20
-195.693
 30
0.0
 11
1084.806
 21
-195.693
 31
0.0
  0
LINE
  5
1C8
  8
EBENE01
 62
     4
 10
1094.530
 20
-199.763
 30
0.0
 11
1094.530
 21
-195.693
 31
0.0
  0
LINE
  5
1C9
  8
EBENE01
 62
     4
 10
1078.466
 20
-199.763
 30
0.0
 11
1094.530
 21
-199.763
 31
0.0
  0
LINE
  5
1CA
  8
EBENE01
 62
     4
 10
1110.080
 20
-199.763
 30
0.0
 11
1116.934
 21
-199.763
 31
0.0
  0
LINE
  5
1CB
  8
EBENE01
 62
     4
 10
1102.241
 20
-186.055
 30
0.0
 11
1110.080
 21
-199.763
 31
0.0
  0
LINE
  5
1CC
  8
EBENE01
 62
     4
 10
1102.241
 20
-199.763
 30
0.0
 11
1102.241
 21
-186.055
 31
0.0
  0
LINE
  5
1CD
  8
EBENE01
 62
     4
 10
1098.086
 20
-199.763
 30
0.0
 11
1102.241
 21
-199.763
 31
0.0
  0
LINE
  5
1CE
  8
EBENE01
 62
     4
 10
1098.086
 20
-178.344
 30
0.0
 11
1098.086
 21
-199.763
 31
0.0
  0
LINE
  5
1CF
  8
EBENE01
 62
     4
 10
1105.025
 20
-178.344
 30
0.0
 11
1098.086
 21
-178.344
 31
0.0
  0
LINE
  5
1D0
  8
EBENE01
 62
     4
 10
1112.650
 20
-192.609
 30
0.0
 11
1105.025
 21
-178.344
 31
0.0
  0
LINE
  5
1D1
  8
EBENE01
 62
     4
 10
1112.650
 20
-178.344
 30
0.0
 11
1112.650
 21
-192.609
 31
0.0
  0
LINE
  5
1D2
  8
EBENE01
 62
     4
 10
1116.934
 20
-178.344
 30
0.0
 11
1112.650
 21
-178.344
 31
0.0
  0
LINE
  5
1D3
  8
EBENE01
 62
     4
 10
1116.934
 20
-199.763
 30
0.0
 11
1116.934
 21
-178.344
 31
0.0
  0
LINE
  5
1D4
  8
EBENE01
 62
     4
 10
1067.243
 20
-185.969
 30
0.0
 11
1067.243
 21
-199.763
 31
0.0
  0
LINE
  5
1D5
  8
EBENE01
 62
     4
 10
1061.117
 20
-199.977
 30
0.0
 11
1067.243
 21
-185.969
 31
0.0
  0
LINE
  5
1D6
  8
EBENE01
 62
     4
 10
1057.047
 20
-199.977
 30
0.0
 11
1061.117
 21
-199.977
 31
0.0
  0
LINE
  5
1D7
  8
EBENE01
 62
     4
 10
1051.050
 20
-185.969
 30
0.0
 11
1057.047
 21
-199.977
 31
0.0
  0
LINE
  5
1D8
  8
EBENE01
 62
     4
 10
1051.050
 20
-199.763
 30
0.0
 11
1051.050
 21
-185.969
 31
0.0
  0
LINE
  5
1D9
  8
EBENE01
 62
     4
 10
1046.681
 20
-199.763
 30
0.0
 11
1051.050
 21
-199.763
 31
0.0
  0
LINE
  5
1DA
  8
EBENE01
 62
     4
 10
1046.681
 20
-178.344
 30
0.0
 11
1046.681
 21
-199.763
 31
0.0
  0
LINE
  5
1DB
  8
EBENE01
 62
     4
 10
1054.606
 20
-178.344
 30
0.0
 11
1046.681
 21
-178.344
 31
0.0
  0
LINE
  5
1DC
  8
EBENE01
 62
     4
 10
1060.174
 20
-189.396
 30
0.0
 11
1054.606
 21
-178.344
 31
0.0
  0
LINE
  5
1DD
  8
EBENE01
 62
     4
 10
1065.743
 20
-178.344
 30
0.0
 11
1060.174
 21
-189.396
 31
0.0
  0
LINE
  5
1DE
  8
EBENE01
 62
     4
 10
1073.454
 20
-178.344
 30
0.0
 11
1065.743
 21
-178.344
 31
0.0
  0
LINE
  5
1DF
  8
EBENE01
 62
     4
 10
1073.454
 20
-199.763
 30
0.0
 11
1073.454
 21
-178.344
 31
0.0
  0
LINE
  5
1E0
  8
EBENE01
 62
     4
 10
1067.243
 20
-199.763
 30
0.0
 11
1073.454
 21
-199.763
 31
0.0
  0
LINE
  5
1E1
  8
EBENE01
 62
     4
 10
1027.061
 20
-178.344
 30
0.0
 11
1027.061
 21
-199.763
 31
0.0
  0
LINE
  5
1E2
  8
EBENE01
 62
     4
 10
1042.911
 20
-178.344
 30
0.0
 11
1027.061
 21
-178.344
 31
0.0
  0
LINE
  5
1E3
  8
EBENE01
 62
     4
 10
1042.911
 20
-182.328
 30
0.0
 11
1042.911
 21
-178.344
 31
0.0
  0
LINE
  5
1E4
  8
EBENE01
 62
     4
 10
1033.401
 20
-182.328
 30
0.0
 11
1042.911
 21
-182.328
 31
0.0
  0
LINE
  5
1E5
  8
EBENE01
 62
     4
 10
1033.401
 20
-187.040
 30
0.0
 11
1033.401
 21
-182.328
 31
0.0
  0
LINE
  5
1E6
  8
EBENE01
 62
     4
 10
1041.754
 20
-187.040
 30
0.0
 11
1033.401
 21
-187.040
 31
0.0
  0
LINE
  5
1E7
  8
EBENE01
 62
     4
 10
1041.754
 20
-190.681
 30
0.0
 11
1041.754
 21
-187.040
 31
0.0
  0
LINE
  5
1E8
  8
EBENE01
 62
     4
 10
1033.401
 20
-190.681
 30
0.0
 11
1041.754
 21
-190.681
 31
0.0
  0
LINE
  5
1E9
  8
EBENE01
 62
     4
 10
1033.401
 20
-195.693
 30
0.0
 11
1033.401
 21
-190.681
 31
0.0
  0
LINE
  5
1EA
  8
EBENE01
 62
     4
 10
1043.125
 20
-195.693
 30
0.0
 11
1033.401
 21
-195.693
 31
0.0
  0
LINE
  5
1EB
  8
EBENE01
 62
     4
 10
1043.125
 20
-199.763
 30
0.0
 11
1043.125
 21
-195.693
 31
0.0
  0
LINE
  5
1EC
  8
EBENE01
 62
     4
 10
1027.061
 20
-199.763
 30
0.0
 11
1043.125
 21
-199.763
 31
0.0
  0
LINE
  5
1ED
  8
EBENE01
 62
     4
 10
1022.263
 20
-199.763
 30
0.0
 11
1022.263
 21
-178.344
 31
0.0
  0
LINE
  5
1EE
  8
EBENE01
 62
     4
 10
1015.838
 20
-178.344
 30
0.0
 11
1015.838
 21
-199.763
 31
0.0
  0
LINE
  5
1EF
  8
EBENE01
 62
     4
 10
1022.263
 20
-178.344
 30
0.0
 11
1015.838
 21
-178.344
 31
0.0
  0
LINE
  5
1F0
  8
EBENE01
 62
     4
 10
1015.838
 20
-199.763
 30
0.0
 11
1022.263
 21
-199.763
 31
0.0
  0
TEXT
  5
1F1
  8
EBENE01
 10
12.929
 20
-179.404
 30
0.0
 40
13.357
  1

 41
0.8218235294117645
 72
     5
 11
261.737
 21
-179.404
 31
0.0
  0
TEXT
  5
1F2
  8
EBENE01
 10
1225.017
 20
-81.532
 30
0.0
 40
8.548
  1

 50
0.0007432756564034
  0
TEXT
  5
1F3
  8
EBENE01
 10
1159.777
 20
-148.703
 30
0.0
 40
13.357
  1
1LA7166-8AB60
 41
0.8409230769230767
 72
     5
 11
1257.120
 21
-148.703
 31
0.0
  0
TEXT
  5
1F4
  8
EBENE01
 10
1225.373
 20
-111.029
 30
0.0
 40
8.548
  1

 50
359.97509047842152
  0
TEXT
  5
1F5
  8
EBENE01
 10
1166.800
 20
-192.066
 30
0.0
 40
13.357
  1

 41
0.8836363636363632
 72
     5
 11
1296.626
 21
-192.066
 31
0.0
  0
TEXT
  5
1F6
  8
EBENE01
 10
1309.628
 20
-192.066
 30
0.0
 40
13.357
  1

 41
0.8576470588235299
 72
     5
 11
1439.455
 21
-192.066
 31
0.0
  0
POLYLINE
  5
1F7
  8
EBENE01
 62
     4
 66
     1
 10
-58.769
 20
-267.184
 30
0.0
 70
    12
 75
     6
  0
VERTEX
  5
1F8
  8
EBENE01
 62
     4
 10
1135.569
 20
-178.558
 30
0.0
 70
    40
  0
VERTEX
  5
1F9
  8
EBENE01
 62
     4
 10
1135.569
 20
-178.558
 30
0.0
 70
    48
  0
VERTEX
  5
1FA
  8
EBENE01
 62
     4
 10
1134.498
 20
-178.344
 30
0.0
 70
    40
  0
VERTEX
  5
1FB
  8
EBENE01
 62
     4
 10
1134.498
 20
-178.344
 30
0.0
 70
    48
  0
VERTEX
  5
1FC
  8
EBENE01
 62
     4
 10
1133.727
 20
-178.215
 30
0.0
 70
    40
  0
VERTEX
  5
1FD
  8
EBENE01
 62
     4
 10
1133.727
 20
-178.215
 30
0.0
 70
    48
  0
VERTEX
  5
1FE
  8
EBENE01
 62
     4
 10
1133.727
 20
-178.215
 30
0.0
 70
    40
  0
VERTEX
  5
1FF
  8
EBENE01
 62
     4
 10
1133.727
 20
-178.215
 30
0.0
 70
    48
  0
VERTEX
  5
200
  8
EBENE01
 62
     4
 10
1133.084
 20
-178.130
 30
0.0
 70
    40
  0
VERTEX
  5
201
  8
EBENE01
 62
     4
 10
1133.084
 20
-178.130
 30
0.0
 70
    48
  0
VERTEX
  5
202
  8
EBENE01
 62
     4
 10
1132.570
 20
-178.044
 30
0.0
 70
    40
  0
VERTEX
  5
203
  8
EBENE01
 62
     4
 10
1132.570
 20
-178.044
 30
0.0
 70
    48
  0
VERTEX
  5
204
  8
EBENE01
 62
     4
 10
1132.570
 20
-178.044
 30
0.0
 70
    40
  0
VERTEX
  5
205
  8
EBENE01
 62
     4
 10
1132.570
 20
-178.044
 30
0.0
 70
    48
  0
VERTEX
  5
206
  8
EBENE01
 62
     4
 10
1132.013
 20
-178.001
 30
0.0
 70
    40
  0
VERTEX
  5
207
  8
EBENE01
 62
     4
 10
1132.013
 20
-178.001
 30
0.0
 70
    48
  0
VERTEX
  5
208
  8
EBENE01
 62
     4
 10
1131.499
 20
-177.916
 30
0.0
 70
    40
  0
VERTEX
  5
209
  8
EBENE01
 62
     4
 10
1131.499
 20
-177.916
 30
0.0
 70
    48
  0
VERTEX
  5
20A
  8
EBENE01
 62
     4
 10
1131.499
 20
-177.916
 30
0.0
 70
    40
  0
VERTEX
  5
20B
  8
EBENE01
 62
     4
 10
1131.499
 20
-177.916
 30
0.0
 70
    48
  0
VERTEX
  5
20C
  8
EBENE01
 62
     4
 10
1130.942
 20
-177.873
 30
0.0
 70
    40
  0
VERTEX
  5
20D
  8
EBENE01
 62
     4
 10
1130.942
 20
-177.873
 30
0.0
 70
    48
  0
VERTEX
  5
20E
  8
EBENE01
 62
     4
 10
1130.428
 20
-177.830
 30
0.0
 70
    40
  0
VERTEX
  5
20F
  8
EBENE01
 62
     4
 10
1130.428
 20
-177.830
 30
0.0
 70
    48
  0
VERTEX
  5
210
  8
EBENE01
 62
     4
 10
1130.428
 20
-177.830
 30
0.0
 70
    40
  0
VERTEX
  5
211
  8
EBENE01
 62
     4
 10
1130.428
 20
-177.830
 30
0.0
 70
    48
  0
VERTEX
  5
212
  8
EBENE01
 62
     4
 10
1129.871
 20
-177.787
 30
0.0
 70
    40
  0
VERTEX
  5
213
  8
EBENE01
 62
     4
 10
1129.871
 20
-177.787
 30
0.0
 70
    48
  0
VERTEX
  5
214
  8
EBENE01
 62
     4
 10
1129.357
 20
-177.787
 30
0.0
 70
    40
  0
VERTEX
  5
215
  8
EBENE01
 62
     4
 10
1129.357
 20
-177.787
 30
0.0
 70
    48
  0
VERTEX
  5
216
  8
EBENE01
 62
     4
 10
1129.357
 20
-177.787
 30
0.0
 70
    40
  0
VERTEX
  5
217
  8
EBENE01
 62
     4
 10
1129.357
 20
-177.787
 30
0.0
 70
    48
  0
VERTEX
  5
218
  8
EBENE01
 62
     4
 10
1128.800
 20
-177.787
 30
0.0
 70
    40
  0
VERTEX
  5
219
  8
EBENE01
 62
     4
 10
1128.800
 20
-177.787
 30
0.0
 70
    48
  0
VERTEX
  5
21A
  8
EBENE01
 62
     4
 10
1128.286
 20
-177.830
 30
0.0
 70
    40
  0
VERTEX
  5
21B
  8
EBENE01
 62
     4
 10
1128.286
 20
-177.830
 30
0.0
 70
    48
  0
VERTEX
  5
21C
  8
EBENE01
 62
     4
 10
1128.286
 20
-177.830
 30
0.0
 70
    40
  0
VERTEX
  5
21D
  8
EBENE01
 62
     4
 10
1128.286
 20
-177.830
 30
0.0
 70
    48
  0
VERTEX
  5
21E
  8
EBENE01
 62
     4
 10
1127.729
 20
-177.873
 30
0.0
 70
    40
  0
VERTEX
  5
21F
  8
EBENE01
 62
     4
 10
1127.729
 20
-177.873
 30
0.0
 70
    48
  0
VERTEX
  5
220
  8
EBENE01
 62
     4
 10
1127.215
 20
-177.958
 30
0.0
 70
    40
  0
VERTEX
  5
221
  8
EBENE01
 62
     4
 10
1127.215
 20
-177.958
 30
0.0
 70
    48
  0
VERTEX
  5
222
  8
EBENE01
 62
     4
 10
1127.215
 20
-177.958
 30
0.0
 70
    40
  0
VERTEX
  5
223
  8
EBENE01
 62
     4
 10
1127.215
 20
-177.958
 30
0.0
 70
    48
  0
VERTEX
  5
224
  8
EBENE01
 62
     4
 10
1126.658
 20
-178.044
 30
0.0
 70
    40
  0
VERTEX
  5
225
  8
EBENE01
 62
     4
 10
1126.658
 20
-178.044
 30
0.0
 70
    48
  0
VERTEX
  5
226
  8
EBENE01
 62
     4
 10
1126.144
 20
-178.130
 30
0.0
 70
    40
  0
VERTEX
  5
227
  8
EBENE01
 62
     4
 10
1126.144
 20
-178.130
 30
0.0
 70
    48
  0
VERTEX
  5
228
  8
EBENE01
 62
     4
 10
1126.144
 20
-178.130
 30
0.0
 70
    40
  0
VERTEX
  5
229
  8
EBENE01
 62
     4
 10
1126.144
 20
-178.130
 30
0.0
 70
    48
  0
VERTEX
  5
22A
  8
EBENE01
 62
     4
 10
1125.587
 20
-178.258
 30
0.0
 70
    40
  0
VERTEX
  5
22B
  8
EBENE01
 62
     4
 10
1125.587
 20
-178.258
 30
0.0
 70
    48
  0
VERTEX
  5
22C
  8
EBENE01
 62
     4
 10
1125.073
 20
-178.387
 30
0.0
 70
    40
  0
VERTEX
  5
22D
  8
EBENE01
 62
     4
 10
1125.073
 20
-178.387
 30
0.0
 70
    48
  0
VERTEX
  5
22E
  8
EBENE01
 62
     4
 10
1125.073
 20
-178.387
 30
0.0
 70
    40
  0
VERTEX
  5
22F
  8
EBENE01
 62
     4
 10
1125.073
 20
-178.387
 30
0.0
 70
    48
  0
VERTEX
  5
230
  8
EBENE01
 62
     4
 10
1124.516
 20
-178.601
 30
0.0
 70
    40
  0
VERTEX
  5
231
  8
EBENE01
 62
     4
 10
1124.516
 20
-178.601
 30
0.0
 70
    48
  0
VERTEX
  5
232
  8
EBENE01
 62
     4
 10
1124.002
 20
-178.815
 30
0.0
 70
    40
  0
VERTEX
  5
233
  8
EBENE01
 62
     4
 10
1124.002
 20
-178.815
 30
0.0
 70
    48
  0
VERTEX
  5
234
  8
EBENE01
 62
     4
 10
1124.002
 20
-178.815
 30
0.0
 70
    40
  0
VERTEX
  5
235
  8
EBENE01
 62
     4
 10
1124.002
 20
-178.815
 30
0.0
 70
    48
  0
VERTEX
  5
236
  8
EBENE01
 62
     4
 10
1123.446
 20
-179.072
 30
0.0
 70
    40
  0
VERTEX
  5
237
  8
EBENE01
 62
     4
 10
1123.446
 20
-179.072
 30
0.0
 70
    48
  0
VERTEX
  5
238
  8
EBENE01
 62
     4
 10
1122.931
 20
-179.372
 30
0.0
 70
    40
  0
VERTEX
  5
239
  8
EBENE01
 62
     4
 10
1122.931
 20
-179.372
 30
0.0
 70
    48
  0
VERTEX
  5
23A
  8
EBENE01
 62
     4
 10
1122.931
 20
-179.372
 30
0.0
 70
    40
  0
VERTEX
  5
23B
  8
EBENE01
 62
     4
 10
1122.931
 20
-179.372
 30
0.0
 70
    48
  0
VERTEX
  5
23C
  8
EBENE01
 62
     4
 10
1122.375
 20
-179.758
 30
0.0
 70
    40
  0
VERTEX
  5
23D
  8
EBENE01
 62
     4
 10
1122.375
 20
-179.758
 30
0.0
 70
    48
  0
VERTEX
  5
23E
  8
EBENE01
 62
     4
 10
1121.903
 20
-180.186
 30
0.0
 70
    40
  0
VERTEX
  5
23F
  8
EBENE01
 62
     4
 10
1121.903
 20
-180.186
 30
0.0
 70
    48
  0
VERTEX
  5
240
  8
EBENE01
 62
     4
 10
1121.903
 20
-180.186
 30
0.0
 70
    40
  0
VERTEX
  5
241
  8
EBENE01
 62
     4
 10
1121.903
 20
-180.186
 30
0.0
 70
    48
  0
VERTEX
  5
242
  8
EBENE01
 62
     4
 10
1121.518
 20
-180.614
 30
0.0
 70
    40
  0
VERTEX
  5
243
  8
EBENE01
 62
     4
 10
1121.518
 20
-180.614
 30
0.0
 70
    48
  0
VERTEX
  5
244
  8
EBENE01
 62
     4
 10
1121.218
 20
-181.086
 30
0.0
 70
    40
  0
VERTEX
  5
245
  8
EBENE01
 62
     4
 10
1121.218
 20
-181.086
 30
0.0
 70
    48
  0
VERTEX
  5
246
  8
EBENE01
 62
     4
 10
1121.218
 20
-181.086
 30
0.0
 70
    40
  0
VERTEX
  5
247
  8
EBENE01
 62
     4
 10
1121.218
 20
-181.086
 30
0.0
 70
    48
  0
VERTEX
  5
248
  8
EBENE01
 62
     4
 10
1120.961
 20
-181.600
 30
0.0
 70
    40
  0
VERTEX
  5
249
  8
EBENE01
 62
     4
 10
1120.961
 20
-181.600
 30
0.0
 70
    48
  0
VERTEX
  5
24A
  8
EBENE01
 62
     4
 10
1120.704
 20
-182.114
 30
0.0
 70
    40
  0
VERTEX
  5
24B
  8
EBENE01
 62
     4
 10
1120.704
 20
-182.114
 30
0.0
 70
    48
  0
VERTEX
  5
24C
  8
EBENE01
 62
     4
 10
1120.704
 20
-182.114
 30
0.0
 70
    40
  0
VERTEX
  5
24D
  8
EBENE01
 62
     4
 10
1120.704
 20
-182.114
 30
0.0
 70
    48
  0
VERTEX
  5
24E
  8
EBENE01
 62
     4
 10
1120.533
 20
-182.628
 30
0.0
 70
    40
  0
VERTEX
  5
24F
  8
EBENE01
 62
     4
 10
1120.533
 20
-182.628
 30
0.0
 70
    48
  0
VERTEX
  5
250
  8
EBENE01
 62
     4
 10
1120.404
 20
-183.185
 30
0.0
 70
    40
  0
VERTEX
  5
251
  8
EBENE01
 62
     4
 10
1120.404
 20
-183.185
 30
0.0
 70
    48
  0
VERTEX
  5
252
  8
EBENE01
 62
     4
 10
1120.404
 20
-183.185
 30
0.0
 70
    40
  0
VERTEX
  5
253
  8
EBENE01
 62
     4
 10
1120.404
 20
-183.185
 30
0.0
 70
    48
  0
VERTEX
  5
254
  8
EBENE01
 62
     4
 10
1120.318
 20
-183.699
 30
0.0
 70
    40
  0
VERTEX
  5
255
  8
EBENE01
 62
     4
 10
1120.318
 20
-183.699
 30
0.0
 70
    48
  0
VERTEX
  5
256
  8
EBENE01
 62
     4
 10
1120.276
 20
-184.256
 30
0.0
 70
    40
  0
VERTEX
  5
257
  8
EBENE01
 62
     4
 10
1120.276
 20
-184.256
 30
0.0
 70
    48
  0
VERTEX
  5
258
  8
EBENE01
 62
     4
 10
1120.276
 20
-184.256
 30
0.0
 70
    40
  0
VERTEX
  5
259
  8
EBENE01
 62
     4
 10
1120.276
 20
-184.256
 30
0.0
 70
    48
  0
VERTEX
  5
25A
  8
EBENE01
 62
     4
 10
1120.318
 20
-184.770
 30
0.0
 70
    40
  0
VERTEX
  5
25B
  8
EBENE01
 62
     4
 10
1120.318
 20
-184.770
 30
0.0
 70
    48
  0
VERTEX
  5
25C
  8
EBENE01
 62
     4
 10
1120.404
 20
-185.326
 30
0.0
 70
    40
  0
VERTEX
  5
25D
  8
EBENE01
 62
     4
 10
1120.404
 20
-185.326
 30
0.0
 70
    48
  0
VERTEX
  5
25E
  8
EBENE01
 62
     4
 10
1120.404
 20
-185.326
 30
0.0
 70
    40
  0
VERTEX
  5
25F
  8
EBENE01
 62
     4
 10
1120.404
 20
-185.326
 30
0.0
 70
    48
  0
VERTEX
  5
260
  8
EBENE01
 62
     4
 10
1120.533
 20
-185.841
 30
0.0
 70
    40
  0
VERTEX
  5
261
  8
EBENE01
 62
     4
 10
1120.533
 20
-185.841
 30
0.0
 70
    48
  0
VERTEX
  5
262
  8
EBENE01
 62
     4
 10
1120.704
 20
-186.397
 30
0.0
 70
    40
  0
VERTEX
  5
263
  8
EBENE01
 62
     4
 10
1120.704
 20
-186.397
 30
0.0
 70
    48
  0
VERTEX
  5
264
  8
EBENE01
 62
     4
 10
1120.704
 20
-186.397
 30
0.0
 70
    40
  0
VERTEX
  5
265
  8
EBENE01
 62
     4
 10
1120.704
 20
-186.397
 30
0.0
 70
    48
  0
VERTEX
  5
266
  8
EBENE01
 62
     4
 10
1120.961
 20
-186.911
 30
0.0
 70
    40
  0
VERTEX
  5
267
  8
EBENE01
 62
     4
 10
1120.961
 20
-186.911
 30
0.0
 70
    48
  0
VERTEX
  5
268
  8
EBENE01
 62
     4
 10
1121.261
 20
-187.468
 30
0.0
 70
    40
  0
VERTEX
  5
269
  8
EBENE01
 62
     4
 10
1121.261
 20
-187.468
 30
0.0
 70
    48
  0
VERTEX
  5
26A
  8
EBENE01
 62
     4
 10
1121.261
 20
-187.468
 30
0.0
 70
    40
  0
VERTEX
  5
26B
  8
EBENE01
 62
     4
 10
1121.261
 20
-187.468
 30
0.0
 70
    48
  0
VERTEX
  5
26C
  8
EBENE01
 62
     4
 10
1121.603
 20
-187.982
 30
0.0
 70
    40
  0
VERTEX
  5
26D
  8
EBENE01
 62
     4
 10
1121.603
 20
-187.982
 30
0.0
 70
    48
  0
VERTEX
  5
26E
  8
EBENE01
 62
     4
 10
1121.989
 20
-188.454
 30
0.0
 70
    40
  0
VERTEX
  5
26F
  8
EBENE01
 62
     4
 10
1121.989
 20
-188.454
 30
0.0
 70
    48
  0
VERTEX
  5
270
  8
EBENE01
 62
     4
 10
1121.989
 20
-188.454
 30
0.0
 70
    40
  0
VERTEX
  5
271
  8
EBENE01
 62
     4
 10
1121.989
 20
-188.454
 30
0.0
 70
    48
  0
VERTEX
  5
272
  8
EBENE01
 62
     4
 10
1122.460
 20
-188.925
 30
0.0
 70
    40
  0
VERTEX
  5
273
  8
EBENE01
 62
     4
 10
1122.460
 20
-188.925
 30
0.0
 70
    48
  0
VERTEX
  5
274
  8
EBENE01
 62
     4
 10
1122.931
 20
-189.310
 30
0.0
 70
    40
  0
VERTEX
  5
275
  8
EBENE01
 62
     4
 10
1122.931
 20
-189.310
 30
0.0
 70
    48
  0
VERTEX
  5
276
  8
EBENE01
 62
     4
 10
1122.931
 20
-189.310
 30
0.0
 70
    40
  0
VERTEX
  5
277
  8
EBENE01
 62
     4
 10
1122.931
 20
-189.310
 30
0.0
 70
    48
  0
VERTEX
  5
278
  8
EBENE01
 62
     4
 10
1123.446
 20
-189.653
 30
0.0
 70
    40
  0
VERTEX
  5
279
  8
EBENE01
 62
     4
 10
1123.446
 20
-189.653
 30
0.0
 70
    48
  0
VERTEX
  5
27A
  8
EBENE01
 62
     4
 10
1124.002
 20
-189.953
 30
0.0
 70
    40
  0
VERTEX
  5
27B
  8
EBENE01
 62
     4
 10
1124.002
 20
-189.953
 30
0.0
 70
    48
  0
VERTEX
  5
27C
  8
EBENE01
 62
     4
 10
1124.002
 20
-189.953
 30
0.0
 70
    40
  0
VERTEX
  5
27D
  8
EBENE01
 62
     4
 10
1124.002
 20
-189.953
 30
0.0
 70
    48
  0
VERTEX
  5
27E
  8
EBENE01
 62
     4
 10
1124.516
 20
-190.253
 30
0.0
 70
    40
  0
VERTEX
  5
27F
  8
EBENE01
 62
     4
 10
1124.516
 20
-190.253
 30
0.0
 70
    48
  0
VERTEX
  5
280
  8
EBENE01
 62
     4
 10
1125.073
 20
-190.510
 30
0.0
 70
    40
  0
VERTEX
  5
281
  8
EBENE01
 62
     4
 10
1125.073
 20
-190.510
 30
0.0
 70
    48
  0
VERTEX
  5
282
  8
EBENE01
 62
     4
 10
1125.073
 20
-190.510
 30
0.0
 70
    40
  0
VERTEX
  5
283
  8
EBENE01
 62
     4
 10
1125.073
 20
-190.510
 30
0.0
 70
    48
  0
VERTEX
  5
284
  8
EBENE01
 62
     4
 10
1125.587
 20
-190.767
 30
0.0
 70
    40
  0
VERTEX
  5
285
  8
EBENE01
 62
     4
 10
1125.587
 20
-190.767
 30
0.0
 70
    48
  0
VERTEX
  5
286
  8
EBENE01
 62
     4
 10
1126.144
 20
-190.981
 30
0.0
 70
    40
  0
VERTEX
  5
287
  8
EBENE01
 62
     4
 10
1126.144
 20
-190.981
 30
0.0
 70
    48
  0
VERTEX
  5
288
  8
EBENE01
 62
     4
 10
1126.144
 20
-190.981
 30
0.0
 70
    40
  0
VERTEX
  5
289
  8
EBENE01
 62
     4
 10
1126.144
 20
-190.981
 30
0.0
 70
    48
  0
VERTEX
  5
28A
  8
EBENE01
 62
     4
 10
1126.658
 20
-191.238
 30
0.0
 70
    40
  0
VERTEX
  5
28B
  8
EBENE01
 62
     4
 10
1126.658
 20
-191.238
 30
0.0
 70
    48
  0
VERTEX
  5
28C
  8
EBENE01
 62
     4
 10
1127.215
 20
-191.495
 30
0.0
 70
    40
  0
VERTEX
  5
28D
  8
EBENE01
 62
     4
 10
1127.215
 20
-191.495
 30
0.0
 70
    48
  0
VERTEX
  5
28E
  8
EBENE01
 62
     4
 10
1127.215
 20
-191.495
 30
0.0
 70
    40
  0
VERTEX
  5
28F
  8
EBENE01
 62
     4
 10
1127.215
 20
-191.495
 30
0.0
 70
    48
  0
VERTEX
  5
290
  8
EBENE01
 62
     4
 10
1127.729
 20
-191.709
 30
0.0
 70
    40
  0
VERTEX
  5
291
  8
EBENE01
 62
     4
 10
1127.729
 20
-191.709
 30
0.0
 70
    48
  0
VERTEX
  5
292
  8
EBENE01
 62
     4
 10
1128.286
 20
-191.966
 30
0.0
 70
    40
  0
VERTEX
  5
293
  8
EBENE01
 62
     4
 10
1128.286
 20
-191.966
 30
0.0
 70
    48
  0
VERTEX
  5
294
  8
EBENE01
 62
     4
 10
1128.286
 20
-191.966
 30
0.0
 70
    40
  0
VERTEX
  5
295
  8
EBENE01
 62
     4
 10
1128.286
 20
-191.966
 30
0.0
 70
    48
  0
VERTEX
  5
296
  8
EBENE01
 62
     4
 10
1128.800
 20
-192.180
 30
0.0
 70
    40
  0
VERTEX
  5
297
  8
EBENE01
 62
     4
 10
1128.800
 20
-192.180
 30
0.0
 70
    48
  0
VERTEX
  5
298
  8
EBENE01
 62
     4
 10
1129.357
 20
-192.438
 30
0.0
 70
    40
  0
VERTEX
  5
299
  8
EBENE01
 62
     4
 10
1129.357
 20
-192.438
 30
0.0
 70
    48
  0
VERTEX
  5
29A
  8
EBENE01
 62
     4
 10
1129.357
 20
-192.438
 30
0.0
 70
    40
  0
VERTEX
  5
29B
  8
EBENE01
 62
     4
 10
1129.357
 20
-192.438
 30
0.0
 70
    48
  0
VERTEX
  5
29C
  8
EBENE01
 62
     4
 10
1129.871
 20
-192.695
 30
0.0
 70
    40
  0
VERTEX
  5
29D
  8
EBENE01
 62
     4
 10
1129.871
 20
-192.695
 30
0.0
 70
    48
  0
VERTEX
  5
29E
  8
EBENE01
 62
     4
 10
1130.300
 20
-192.994
 30
0.0
 70
    40
  0
VERTEX
  5
29F
  8
EBENE01
 62
     4
 10
1130.300
 20
-192.994
 30
0.0
 70
    48
  0
VERTEX
  5
2A0
  8
EBENE01
 62
     4
 10
1130.300
 20
-192.994
 30
0.0
 70
    40
  0
VERTEX
  5
2A1
  8
EBENE01
 62
     4
 10
1130.300
 20
-192.994
 30
0.0
 70
    48
  0
VERTEX
  5
2A2
  8
EBENE01
 62
     4
 10
1130.557
 20
-193.209
 30
0.0
 70
    40
  0
VERTEX
  5
2A3
  8
EBENE01
 62
     4
 10
1130.557
 20
-193.209
 30
0.0
 70
    48
  0
VERTEX
  5
2A4
  8
EBENE01
 62
     4
 10
1130.728
 20
-193.380
 30
0.0
 70
    40
  0
VERTEX
  5
2A5
  8
EBENE01
 62
     4
 10
1130.728
 20
-193.380
 30
0.0
 70
    48
  0
VERTEX
  5
2A6
  8
EBENE01
 62
     4
 10
1130.728
 20
-193.380
 30
0.0
 70
    40
  0
VERTEX
  5
2A7
  8
EBENE01
 62
     4
 10
1130.728
 20
-193.380
 30
0.0
 70
    48
  0
VERTEX
  5
2A8
  8
EBENE01
 62
     4
 10
1130.856
 20
-193.637
 30
0.0
 70
    40
  0
VERTEX
  5
2A9
  8
EBENE01
 62
     4
 10
1130.856
 20
-193.637
 30
0.0
 70
    48
  0
VERTEX
  5
2AA
  8
EBENE01
 62
     4
 10
1130.985
 20
-193.894
 30
0.0
 70
    40
  0
VERTEX
  5
2AB
  8
EBENE01
 62
     4
 10
1130.985
 20
-193.894
 30
0.0
 70
    48
  0
VERTEX
  5
2AC
  8
EBENE01
 62
     4
 10
1130.985
 20
-193.894
 30
0.0
 70
    40
  0
VERTEX
  5
2AD
  8
EBENE01
 62
     4
 10
1130.985
 20
-193.894
 30
0.0
 70
    48
  0
VERTEX
  5
2AE
  8
EBENE01
 62
     4
 10
1131.028
 20
-194.151
 30
0.0
 70
    40
  0
VERTEX
  5
2AF
  8
EBENE01
 62
     4
 10
1131.028
 20
-194.151
 30
0.0
 70
    48
  0
VERTEX
  5
2B0
  8
EBENE01
 62
     4
 10
1131.028
 20
-194.408
 30
0.0
 70
    40
  0
VERTEX
  5
2B1
  8
EBENE01
 62
     4
 10
1131.028
 20
-194.408
 30
0.0
 70
    48
  0
VERTEX
  5
2B2
  8
EBENE01
 62
     4
 10
1131.028
 20
-194.408
 30
0.0
 70
    40
  0
VERTEX
  5
2B3
  8
EBENE01
 62
     4
 10
1131.028
 20
-194.408
 30
0.0
 70
    48
  0
VERTEX
  5
2B4
  8
EBENE01
 62
     4
 10
1130.985
 20
-194.708
 30
0.0
 70
    40
  0
VERTEX
  5
2B5
  8
EBENE01
 62
     4
 10
1130.985
 20
-194.708
 30
0.0
 70
    48
  0
VERTEX
  5
2B6
  8
EBENE01
 62
     4
 10
1130.899
 20
-194.965
 30
0.0
 70
    40
  0
VERTEX
  5
2B7
  8
EBENE01
 62
     4
 10
1130.899
 20
-194.965
 30
0.0
 70
    48
  0
VERTEX
  5
2B8
  8
EBENE01
 62
     4
 10
1130.899
 20
-194.965
 30
0.0
 70
    40
  0
VERTEX
  5
2B9
  8
EBENE01
 62
     4
 10
1130.899
 20
-194.965
 30
0.0
 70
    48
  0
VERTEX
  5
2BA
  8
EBENE01
 62
     4
 10
1130.685
 20
-195.222
 30
0.0
 70
    40
  0
VERTEX
  5
2BB
  8
EBENE01
 62
     4
 10
1130.685
 20
-195.222
 30
0.0
 70
    48
  0
VERTEX
  5
2BC
  8
EBENE01
 62
     4
 10
1130.342
 20
-195.479
 30
0.0
 70
    40
  0
VERTEX
  5
2BD
  8
EBENE01
 62
     4
 10
1130.342
 20
-195.479
 30
0.0
 70
    48
  0
VERTEX
  5
2BE
  8
EBENE01
 62
     4
 10
1130.342
 20
-195.479
 30
0.0
 70
    40
  0
VERTEX
  5
2BF
  8
EBENE01
 62
     4
 10
1130.342
 20
-195.479
 30
0.0
 70
    48
  0
VERTEX
  5
2C0
  8
EBENE01
 62
     4
 10
1129.871
 20
-195.693
 30
0.0
 70
    40
  0
VERTEX
  5
2C1
  8
EBENE01
 62
     4
 10
1129.871
 20
-195.693
 30
0.0
 70
    48
  0
VERTEX
  5
2C2
  8
EBENE01
 62
     4
 10
1129.357
 20
-195.822
 30
0.0
 70
    40
  0
VERTEX
  5
2C3
  8
EBENE01
 62
     4
 10
1129.357
 20
-195.822
 30
0.0
 70
    48
  0
VERTEX
  5
2C4
  8
EBENE01
 62
     4
 10
1129.357
 20
-195.822
 30
0.0
 70
    40
  0
VERTEX
  5
2C5
  8
EBENE01
 62
     4
 10
1129.357
 20
-195.822
 30
0.0
 70
    48
  0
VERTEX
  5
2C6
  8
EBENE01
 62
     4
 10
1128.800
 20
-195.950
 30
0.0
 70
    40
  0
VERTEX
  5
2C7
  8
EBENE01
 62
     4
 10
1128.800
 20
-195.950
 30
0.0
 70
    48
  0
VERTEX
  5
2C8
  8
EBENE01
 62
     4
 10
1128.286
 20
-196.036
 30
0.0
 70
    40
  0
VERTEX
  5
2C9
  8
EBENE01
 62
     4
 10
1128.286
 20
-196.036
 30
0.0
 70
    48
  0
VERTEX
  5
2CA
  8
EBENE01
 62
     4
 10
1128.286
 20
-196.036
 30
0.0
 70
    40
  0
VERTEX
  5
2CB
  8
EBENE01
 62
     4
 10
1128.286
 20
-196.036
 30
0.0
 70
    48
  0
VERTEX
  5
2CC
  8
EBENE01
 62
     4
 10
1127.729
 20
-196.036
 30
0.0
 70
    40
  0
VERTEX
  5
2CD
  8
EBENE01
 62
     4
 10
1127.729
 20
-196.036
 30
0.0
 70
    48
  0
VERTEX
  5
2CE
  8
EBENE01
 62
     4
 10
1127.215
 20
-196.079
 30
0.0
 70
    40
  0
VERTEX
  5
2CF
  8
EBENE01
 62
     4
 10
1127.215
 20
-196.079
 30
0.0
 70
    48
  0
VERTEX
  5
2D0
  8
EBENE01
 62
     4
 10
1127.215
 20
-196.079
 30
0.0
 70
    40
  0
VERTEX
  5
2D1
  8
EBENE01
 62
     4
 10
1127.215
 20
-196.079
 30
0.0
 70
    48
  0
VERTEX
  5
2D2
  8
EBENE01
 62
     4
 10
1126.658
 20
-196.079
 30
0.0
 70
    40
  0
VERTEX
  5
2D3
  8
EBENE01
 62
     4
 10
1126.658
 20
-196.079
 30
0.0
 70
    48
  0
VERTEX
  5
2D4
  8
EBENE01
 62
     4
 10
1126.144
 20
-196.036
 30
0.0
 70
    40
  0
VERTEX
  5
2D5
  8
EBENE01
 62
     4
 10
1126.144
 20
-196.036
 30
0.0
 70
    48
  0
VERTEX
  5
2D6
  8
EBENE01
 62
     4
 10
1126.144
 20
-196.036
 30
0.0
 70
    40
  0
VERTEX
  5
2D7
  8
EBENE01
 62
     4
 10
1126.144
 20
-196.036
 30
0.0
 70
    48
  0
VERTEX
  5
2D8
  8
EBENE01
 62
     4
 10
1125.587
 20
-195.993
 30
0.0
 70
    40
  0
VERTEX
  5
2D9
  8
EBENE01
 62
     4
 10
1125.587
 20
-195.993
 30
0.0
 70
    48
  0
VERTEX
  5
2DA
  8
EBENE01
 62
     4
 10
1125.073
 20
-195.907
 30
0.0
 70
    40
  0
VERTEX
  5
2DB
  8
EBENE01
 62
     4
 10
1125.073
 20
-195.907
 30
0.0
 70
    48
  0
VERTEX
  5
2DC
  8
EBENE01
 62
     4
 10
1125.073
 20
-195.907
 30
0.0
 70
    40
  0
VERTEX
  5
2DD
  8
EBENE01
 62
     4
 10
1125.073
 20
-195.907
 30
0.0
 70
    48
  0
VERTEX
  5
2DE
  8
EBENE01
 62
     4
 10
1124.516
 20
-195.865
 30
0.0
 70
    40
  0
VERTEX
  5
2DF
  8
EBENE01
 62
     4
 10
1124.516
 20
-195.865
 30
0.0
 70
    48
  0
VERTEX
  5
2E0
  8
EBENE01
 62
     4
 10
1124.002
 20
-195.822
 30
0.0
 70
    40
  0
VERTEX
  5
2E1
  8
EBENE01
 62
     4
 10
1124.002
 20
-195.822
 30
0.0
 70
    48
  0
VERTEX
  5
2E2
  8
EBENE01
 62
     4
 10
1124.002
 20
-195.822
 30
0.0
 70
    40
  0
VERTEX
  5
2E3
  8
EBENE01
 62
     4
 10
1124.002
 20
-195.822
 30
0.0
 70
    48
  0
VERTEX
  5
2E4
  8
EBENE01
 62
     4
 10
1123.446
 20
-195.693
 30
0.0
 70
    40
  0
VERTEX
  5
2E5
  8
EBENE01
 62
     4
 10
1123.446
 20
-195.693
 30
0.0
 70
    48
  0
VERTEX
  5
2E6
  8
EBENE01
 62
     4
 10
1122.846
 20
-195.565
 30
0.0
 70
    40
  0
VERTEX
  5
2E7
  8
EBENE01
 62
     4
 10
1122.846
 20
-195.565
 30
0.0
 70
    48
  0
VERTEX
  5
2E8
  8
EBENE01
 62
     4
 10
1122.846
 20
-195.565
 30
0.0
 70
    40
  0
VERTEX
  5
2E9
  8
EBENE01
 62
     4
 10
1122.846
 20
-195.565
 30
0.0
 70
    48
  0
VERTEX
  5
2EA
  8
EBENE01
 62
     4
 10
1122.032
 20
-195.393
 30
0.0
 70
    40
  0
VERTEX
  5
2EB
  8
EBENE01
 62
     4
 10
1122.032
 20
-195.393
 30
0.0
 70
    48
  0
VERTEX
  5
2EC
  8
EBENE01
 62
     4
 10
1120.790
 20
-195.051
 30
0.0
 70
    40
  0
VERTEX
  5
2ED
  8
EBENE01
 62
     4
 10
1120.790
 20
-195.051
 30
0.0
 70
    48
  0
SEQEND
  5
2EE
  8
EBENE01
 62
     4
  0
POLYLINE
  5
2EF
  8
EBENE01
 62
     4
 66
     1
 10
-58.769
 20
-267.184
 30
0.0
 70
    12
 75
     6
  0
VERTEX
  5
2F0
  8
EBENE01
 62
     4
 10
1120.790
 20
-199.334
 30
0.0
 70
    40
  0
VERTEX
  5
2F1
  8
EBENE01
 62
     4
 10
1120.790
 20
-199.334
 30
0.0
 70
    48
  0
VERTEX
  5
2F2
  8
EBENE01
 62
     4
 10
1122.032
 20
-199.591
 30
0.0
 70
    40
  0
VERTEX
  5
2F3
  8
EBENE01
 62
     4
 10
1122.032
 20
-199.591
 30
0.0
 70
    48
  0
VERTEX
  5
2F4
  8
EBENE01
 62
     4
 10
1122.846
 20
-199.763
 30
0.0
 70
    40
  0
VERTEX
  5
2F5
  8
EBENE01
 62
     4
 10
1122.846
 20
-199.763
 30
0.0
 70
    48
  0
VERTEX
  5
2F6
  8
EBENE01
 62
     4
 10
1122.846
 20
-199.763
 30
0.0
 70
    40
  0
VERTEX
  5
2F7
  8
EBENE01
 62
     4
 10
1122.846
 20
-199.763
 30
0.0
 70
    48
  0
VERTEX
  5
2F8
  8
EBENE01
 62
     4
 10
1123.446
 20
-199.848
 30
0.0
 70
    40
  0
VERTEX
  5
2F9
  8
EBENE01
 62
     4
 10
1123.446
 20
-199.848
 30
0.0
 70
    48
  0
VERTEX
  5
2FA
  8
EBENE01
 62
     4
 10
1124.002
 20
-199.934
 30
0.0
 70
    40
  0
VERTEX
  5
2FB
  8
EBENE01
 62
     4
 10
1124.002
 20
-199.934
 30
0.0
 70
    48
  0
VERTEX
  5
2FC
  8
EBENE01
 62
     4
 10
1124.002
 20
-199.934
 30
0.0
 70
    40
  0
VERTEX
  5
2FD
  8
EBENE01
 62
     4
 10
1124.002
 20
-199.934
 30
0.0
 70
    48
  0
VERTEX
  5
2FE
  8
EBENE01
 62
     4
 10
1124.516
 20
-200.020
 30
0.0
 70
    40
  0
VERTEX
  5
2FF
  8
EBENE01
 62
     4
 10
1124.516
 20
-200.020
 30
0.0
 70
    48
  0
VERTEX
  5
300
  8
EBENE01
 62
     4
 10
1125.073
 20
-200.105
 30
0.0
 70
    40
  0
VERTEX
  5
301
  8
EBENE01
 62
     4
 10
1125.073
 20
-200.105
 30
0.0
 70
    48
  0
VERTEX
  5
302
  8
EBENE01
 62
     4
 10
1125.073
 20
-200.105
 30
0.0
 70
    40
  0
VERTEX
  5
303
  8
EBENE01
 62
     4
 10
1125.073
 20
-200.105
 30
0.0
 70
    48
  0
VERTEX
  5
304
  8
EBENE01
 62
     4
 10
1125.587
 20
-200.148
 30
0.0
 70
    40
  0
VERTEX
  5
305
  8
EBENE01
 62
     4
 10
1125.587
 20
-200.148
 30
0.0
 70
    48
  0
VERTEX
  5
306
  8
EBENE01
 62
     4
 10
1126.144
 20
-200.148
 30
0.0
 70
    40
  0
VERTEX
  5
307
  8
EBENE01
 62
     4
 10
1126.144
 20
-200.148
 30
0.0
 70
    48
  0
VERTEX
  5
308
  8
EBENE01
 62
     4
 10
1126.144
 20
-200.148
 30
0.0
 70
    40
  0
VERTEX
  5
309
  8
EBENE01
 62
     4
 10
1126.144
 20
-200.148
 30
0.0
 70
    48
  0
VERTEX
  5
30A
  8
EBENE01
 62
     4
 10
1126.658
 20
-200.191
 30
0.0
 70
    40
  0
VERTEX
  5
30B
  8
EBENE01
 62
     4
 10
1126.658
 20
-200.191
 30
0.0
 70
    48
  0
VERTEX
  5
30C
  8
EBENE01
 62
     4
 10
1127.215
 20
-200.191
 30
0.0
 70
    40
  0
VERTEX
  5
30D
  8
EBENE01
 62
     4
 10
1127.215
 20
-200.191
 30
0.0
 70
    48
  0
VERTEX
  5
30E
  8
EBENE01
 62
     4
 10
1127.215
 20
-200.191
 30
0.0
 70
    40
  0
VERTEX
  5
30F
  8
EBENE01
 62
     4
 10
1127.215
 20
-200.191
 30
0.0
 70
    48
  0
VERTEX
  5
310
  8
EBENE01
 62
     4
 10
1127.729
 20
-200.191
 30
0.0
 70
    40
  0
VERTEX
  5
311
  8
EBENE01
 62
     4
 10
1127.729
 20
-200.191
 30
0.0
 70
    48
  0
VERTEX
  5
312
  8
EBENE01
 62
     4
 10
1128.286
 20
-200.191
 30
0.0
 70
    40
  0
VERTEX
  5
313
  8
EBENE01
 62
     4
 10
1128.286
 20
-200.191
 30
0.0
 70
    48
  0
VERTEX
  5
314
  8
EBENE01
 62
     4
 10
1128.286
 20
-200.191
 30
0.0
 70
    40
  0
VERTEX
  5
315
  8
EBENE01
 62
     4
 10
1128.286
 20
-200.191
 30
0.0
 70
    48
  0
VERTEX
  5
316
  8
EBENE01
 62
     4
 10
1128.800
 20
-200.191
 30
0.0
 70
    40
  0
VERTEX
  5
317
  8
EBENE01
 62
     4
 10
1128.800
 20
-200.191
 30
0.0
 70
    48
  0
VERTEX
  5
318
  8
EBENE01
 62
     4
 10
1129.357
 20
-200.148
 30
0.0
 70
    40
  0
VERTEX
  5
319
  8
EBENE01
 62
     4
 10
1129.357
 20
-200.148
 30
0.0
 70
    48
  0
VERTEX
  5
31A
  8
EBENE01
 62
     4
 10
1129.357
 20
-200.148
 30
0.0
 70
    40
  0
VERTEX
  5
31B
  8
EBENE01
 62
     4
 10
1129.357
 20
-200.148
 30
0.0
 70
    48
  0
VERTEX
  5
31C
  8
EBENE01
 62
     4
 10
1129.871
 20
-200.105
 30
0.0
 70
    40
  0
VERTEX
  5
31D
  8
EBENE01
 62
     4
 10
1129.871
 20
-200.105
 30
0.0
 70
    48
  0
VERTEX
  5
31E
  8
EBENE01
 62
     4
 10
1130.428
 20
-200.020
 30
0.0
 70
    40
  0
VERTEX
  5
31F
  8
EBENE01
 62
     4
 10
1130.428
 20
-200.020
 30
0.0
 70
    48
  0
VERTEX
  5
320
  8
EBENE01
 62
     4
 10
1130.428
 20
-200.020
 30
0.0
 70
    40
  0
VERTEX
  5
321
  8
EBENE01
 62
     4
 10
1130.428
 20
-200.020
 30
0.0
 70
    48
  0
VERTEX
  5
322
  8
EBENE01
 62
     4
 10
1130.942
 20
-199.934
 30
0.0
 70
    40
  0
VERTEX
  5
323
  8
EBENE01
 62
     4
 10
1130.942
 20
-199.934
 30
0.0
 70
    48
  0
VERTEX
  5
324
  8
EBENE01
 62
     4
 10
1131.499
 20
-199.806
 30
0.0
 70
    40
  0
VERTEX
  5
325
  8
EBENE01
 62
     4
 10
1131.499
 20
-199.806
 30
0.0
 70
    48
  0
VERTEX
  5
326
  8
EBENE01
 62
     4
 10
1131.499
 20
-199.806
 30
0.0
 70
    40
  0
VERTEX
  5
327
  8
EBENE01
 62
     4
 10
1131.499
 20
-199.806
 30
0.0
 70
    48
  0
VERTEX
  5
328
  8
EBENE01
 62
     4
 10
1132.013
 20
-199.677
 30
0.0
 70
    40
  0
VERTEX
  5
329
  8
EBENE01
 62
     4
 10
1132.013
 20
-199.677
 30
0.0
 70
    48
  0
VERTEX
  5
32A
  8
EBENE01
 62
     4
 10
1132.570
 20
-199.549
 30
0.0
 70
    40
  0
VERTEX
  5
32B
  8
EBENE01
 62
     4
 10
1132.570
 20
-199.549
 30
0.0
 70
    48
  0
VERTEX
  5
32C
  8
EBENE01
 62
     4
 10
1132.570
 20
-199.549
 30
0.0
 70
    40
  0
VERTEX
  5
32D
  8
EBENE01
 62
     4
 10
1132.570
 20
-199.549
 30
0.0
 70
    48
  0
VERTEX
  5
32E
  8
EBENE01
 62
     4
 10
1133.084
 20
-199.334
 30
0.0
 70
    40
  0
VERTEX
  5
32F
  8
EBENE01
 62
     4
 10
1133.084
 20
-199.334
 30
0.0
 70
    48
  0
VERTEX
  5
330
  8
EBENE01
 62
     4
 10
1133.641
 20
-199.120
 30
0.0
 70
    40
  0
VERTEX
  5
331
  8
EBENE01
 62
     4
 10
1133.641
 20
-199.120
 30
0.0
 70
    48
  0
VERTEX
  5
332
  8
EBENE01
 62
     4
 10
1133.641
 20
-199.120
 30
0.0
 70
    40
  0
VERTEX
  5
333
  8
EBENE01
 62
     4
 10
1133.641
 20
-199.120
 30
0.0
 70
    48
  0
VERTEX
  5
334
  8
EBENE01
 62
     4
 10
1134.155
 20
-198.820
 30
0.0
 70
    40
  0
VERTEX
  5
335
  8
EBENE01
 62
     4
 10
1134.155
 20
-198.820
 30
0.0
 70
    48
  0
VERTEX
  5
336
  8
EBENE01
 62
     4
 10
1134.712
 20
-198.435
 30
0.0
 70
    40
  0
VERTEX
  5
337
  8
EBENE01
 62
     4
 10
1134.712
 20
-198.435
 30
0.0
 70
    48
  0
VERTEX
  5
338
  8
EBENE01
 62
     4
 10
1134.712
 20
-198.435
 30
0.0
 70
    40
  0
VERTEX
  5
339
  8
EBENE01
 62
     4
 10
1134.712
 20
-198.435
 30
0.0
 70
    48
  0
VERTEX
  5
33A
  8
EBENE01
 62
     4
 10
1135.226
 20
-198.006
 30
0.0
 70
    40
  0
VERTEX
  5
33B
  8
EBENE01
 62
     4
 10
1135.226
 20
-198.006
 30
0.0
 70
    48
  0
VERTEX
  5
33C
  8
EBENE01
 62
     4
 10
1135.697
 20
-197.535
 30
0.0
 70
    40
  0
VERTEX
  5
33D
  8
EBENE01
 62
     4
 10
1135.697
 20
-197.535
 30
0.0
 70
    48
  0
VERTEX
  5
33E
  8
EBENE01
 62
     4
 10
1135.697
 20
-197.535
 30
0.0
 70
    40
  0
VERTEX
  5
33F
  8
EBENE01
 62
     4
 10
1135.697
 20
-197.535
 30
0.0
 70
    48
  0
VERTEX
  5
340
  8
EBENE01
 62
     4
 10
1136.125
 20
-196.978
 30
0.0
 70
    40
  0
VERTEX
  5
341
  8
EBENE01
 62
     4
 10
1136.125
 20
-196.978
 30
0.0
 70
    48
  0
VERTEX
  5
342
  8
EBENE01
 62
     4
 10
1136.425
 20
-196.464
 30
0.0
 70
    40
  0
VERTEX
  5
343
  8
EBENE01
 62
     4
 10
1136.425
 20
-196.464
 30
0.0
 70
    48
  0
VERTEX
  5
344
  8
EBENE01
 62
     4
 10
1136.425
 20
-196.464
 30
0.0
 70
    40
  0
VERTEX
  5
345
  8
EBENE01
 62
     4
 10
1136.425
 20
-196.464
 30
0.0
 70
    48
  0
VERTEX
  5
346
  8
EBENE01
 62
     4
 10
1136.682
 20
-195.907
 30
0.0
 70
    40
  0
VERTEX
  5
347
  8
EBENE01
 62
     4
 10
1136.682
 20
-195.907
 30
0.0
 70
    48
  0
VERTEX
  5
348
  8
EBENE01
 62
     4
 10
1136.896
 20
-195.393
 30
0.0
 70
    40
  0
VERTEX
  5
349
  8
EBENE01
 62
     4
 10
1136.896
 20
-195.393
 30
0.0
 70
    48
  0
VERTEX
  5
34A
  8
EBENE01
 62
     4
 10
1136.896
 20
-195.393
 30
0.0
 70
    40
  0
VERTEX
  5
34B
  8
EBENE01
 62
     4
 10
1136.896
 20
-195.393
 30
0.0
 70
    48
  0
VERTEX
  5
34C
  8
EBENE01
 62
     4
 10
1137.068
 20
-194.836
 30
0.0
 70
    40
  0
VERTEX
  5
34D
  8
EBENE01
 62
     4
 10
1137.068
 20
-194.836
 30
0.0
 70
    48
  0
VERTEX
  5
34E
  8
EBENE01
 62
     4
 10
1137.196
 20
-194.322
 30
0.0
 70
    40
  0
VERTEX
  5
34F
  8
EBENE01
 62
     4
 10
1137.196
 20
-194.322
 30
0.0
 70
    48
  0
VERTEX
  5
350
  8
EBENE01
 62
     4
 10
1137.196
 20
-194.322
 30
0.0
 70
    40
  0
VERTEX
  5
351
  8
EBENE01
 62
     4
 10
1137.196
 20
-194.322
 30
0.0
 70
    48
  0
VERTEX
  5
352
  8
EBENE01
 62
     4
 10
1137.239
 20
-193.765
 30
0.0
 70
    40
  0
VERTEX
  5
353
  8
EBENE01
 62
     4
 10
1137.239
 20
-193.765
 30
0.0
 70
    48
  0
VERTEX
  5
354
  8
EBENE01
 62
     4
 10
1137.239
 20
-193.251
 30
0.0
 70
    40
  0
VERTEX
  5
355
  8
EBENE01
 62
     4
 10
1137.239
 20
-193.251
 30
0.0
 70
    48
  0
VERTEX
  5
356
  8
EBENE01
 62
     4
 10
1137.239
 20
-193.251
 30
0.0
 70
    40
  0
VERTEX
  5
357
  8
EBENE01
 62
     4
 10
1137.239
 20
-193.251
 30
0.0
 70
    48
  0
VERTEX
  5
358
  8
EBENE01
 62
     4
 10
1137.196
 20
-192.695
 30
0.0
 70
    40
  0
VERTEX
  5
359
  8
EBENE01
 62
     4
 10
1137.196
 20
-192.695
 30
0.0
 70
    48
  0
VERTEX
  5
35A
  8
EBENE01
 62
     4
 10
1137.111
 20
-192.180
 30
0.0
 70
    40
  0
VERTEX
  5
35B
  8
EBENE01
 62
     4
 10
1137.111
 20
-192.180
 30
0.0
 70
    48
  0
VERTEX
  5
35C
  8
EBENE01
 62
     4
 10
1137.111
 20
-192.180
 30
0.0
 70
    40
  0
VERTEX
  5
35D
  8
EBENE01
 62
     4
 10
1137.111
 20
-192.180
 30
0.0
 70
    48
  0
VERTEX
  5
35E
  8
EBENE01
 62
     4
 10
1136.939
 20
-191.624
 30
0.0
 70
    40
  0
VERTEX
  5
35F
  8
EBENE01
 62
     4
 10
1136.939
 20
-191.624
 30
0.0
 70
    48
  0
VERTEX
  5
360
  8
EBENE01
 62
     4
 10
1136.725
 20
-191.110
 30
0.0
 70
    40
  0
VERTEX
  5
361
  8
EBENE01
 62
     4
 10
1136.725
 20
-191.110
 30
0.0
 70
    48
  0
VERTEX
  5
362
  8
EBENE01
 62
     4
 10
1136.725
 20
-191.110
 30
0.0
 70
    40
  0
VERTEX
  5
363
  8
EBENE01
 62
     4
 10
1136.725
 20
-191.110
 30
0.0
 70
    48
  0
VERTEX
  5
364
  8
EBENE01
 62
     4
 10
1136.468
 20
-190.553
 30
0.0
 70
    40
  0
VERTEX
  5
365
  8
EBENE01
 62
     4
 10
1136.468
 20
-190.553
 30
0.0
 70
    48
  0
VERTEX
  5
366
  8
EBENE01
 62
     4
 10
1136.125
 20
-190.039
 30
0.0
 70
    40
  0
VERTEX
  5
367
  8
EBENE01
 62
     4
 10
1136.125
 20
-190.039
 30
0.0
 70
    48
  0
VERTEX
  5
368
  8
EBENE01
 62
     4
 10
1136.125
 20
-190.039
 30
0.0
 70
    40
  0
VERTEX
  5
369
  8
EBENE01
 62
     4
 10
1136.125
 20
-190.039
 30
0.0
 70
    48
  0
VERTEX
  5
36A
  8
EBENE01
 62
     4
 10
1135.697
 20
-189.525
 30
0.0
 70
    40
  0
VERTEX
  5
36B
  8
EBENE01
 62
     4
 10
1135.697
 20
-189.525
 30
0.0
 70
    48
  0
VERTEX
  5
36C
  8
EBENE01
 62
     4
 10
1135.226
 20
-189.011
 30
0.0
 70
    40
  0
VERTEX
  5
36D
  8
EBENE01
 62
     4
 10
1135.226
 20
-189.011
 30
0.0
 70
    48
  0
VERTEX
  5
36E
  8
EBENE01
 62
     4
 10
1135.226
 20
-189.011
 30
0.0
 70
    40
  0
VERTEX
  5
36F
  8
EBENE01
 62
     4
 10
1135.226
 20
-189.011
 30
0.0
 70
    48
  0
VERTEX
  5
370
  8
EBENE01
 62
     4
 10
1134.712
 20
-188.539
 30
0.0
 70
    40
  0
VERTEX
  5
371
  8
EBENE01
 62
     4
 10
1134.712
 20
-188.539
 30
0.0
 70
    48
  0
VERTEX
  5
372
  8
EBENE01
 62
     4
 10
1134.155
 20
-188.154
 30
0.0
 70
    40
  0
VERTEX
  5
373
  8
EBENE01
 62
     4
 10
1134.155
 20
-188.154
 30
0.0
 70
    48
  0
VERTEX
  5
374
  8
EBENE01
 62
     4
 10
1134.155
 20
-188.154
 30
0.0
 70
    40
  0
VERTEX
  5
375
  8
EBENE01
 62
     4
 10
1134.155
 20
-188.154
 30
0.0
 70
    48
  0
VERTEX
  5
376
  8
EBENE01
 62
     4
 10
1133.641
 20
-187.811
 30
0.0
 70
    40
  0
VERTEX
  5
377
  8
EBENE01
 62
     4
 10
1133.641
 20
-187.811
 30
0.0
 70
    48
  0
VERTEX
  5
378
  8
EBENE01
 62
     4
 10
1133.084
 20
-187.511
 30
0.0
 70
    40
  0
VERTEX
  5
379
  8
EBENE01
 62
     4
 10
1133.084
 20
-187.511
 30
0.0
 70
    48
  0
VERTEX
  5
37A
  8
EBENE01
 62
     4
 10
1133.084
 20
-187.511
 30
0.0
 70
    40
  0
VERTEX
  5
37B
  8
EBENE01
 62
     4
 10
1133.084
 20
-187.511
 30
0.0
 70
    48
  0
VERTEX
  5
37C
  8
EBENE01
 62
     4
 10
1132.570
 20
-187.211
 30
0.0
 70
    40
  0
VERTEX
  5
37D
  8
EBENE01
 62
     4
 10
1132.570
 20
-187.211
 30
0.0
 70
    48
  0
VERTEX
  5
37E
  8
EBENE01
 62
     4
 10
1132.013
 20
-186.997
 30
0.0
 70
    40
  0
VERTEX
  5
37F
  8
EBENE01
 62
     4
 10
1132.013
 20
-186.997
 30
0.0
 70
    48
  0
VERTEX
  5
380
  8
EBENE01
 62
     4
 10
1132.013
 20
-186.997
 30
0.0
 70
    40
  0
VERTEX
  5
381
  8
EBENE01
 62
     4
 10
1132.013
 20
-186.997
 30
0.0
 70
    48
  0
VERTEX
  5
382
  8
EBENE01
 62
     4
 10
1131.499
 20
-186.740
 30
0.0
 70
    40
  0
VERTEX
  5
383
  8
EBENE01
 62
     4
 10
1131.499
 20
-186.740
 30
0.0
 70
    48
  0
VERTEX
  5
384
  8
EBENE01
 62
     4
 10
1130.942
 20
-186.483
 30
0.0
 70
    40
  0
VERTEX
  5
385
  8
EBENE01
 62
     4
 10
1130.942
 20
-186.483
 30
0.0
 70
    48
  0
VERTEX
  5
386
  8
EBENE01
 62
     4
 10
1130.942
 20
-186.483
 30
0.0
 70
    40
  0
VERTEX
  5
387
  8
EBENE01
 62
     4
 10
1130.942
 20
-186.483
 30
0.0
 70
    48
  0
VERTEX
  5
388
  8
EBENE01
 62
     4
 10
1130.428
 20
-186.226
 30
0.0
 70
    40
  0
VERTEX
  5
389
  8
EBENE01
 62
     4
 10
1130.428
 20
-186.226
 30
0.0
 70
    48
  0
VERTEX
  5
38A
  8
EBENE01
 62
     4
 10
1129.871
 20
-185.969
 30
0.0
 70
    40
  0
VERTEX
  5
38B
  8
EBENE01
 62
     4
 10
1129.871
 20
-185.969
 30
0.0
 70
    48
  0
VERTEX
  5
38C
  8
EBENE01
 62
     4
 10
1129.871
 20
-185.969
 30
0.0
 70
    40
  0
VERTEX
  5
38D
  8
EBENE01
 62
     4
 10
1129.871
 20
-185.969
 30
0.0
 70
    48
  0
VERTEX
  5
38E
  8
EBENE01
 62
     4
 10
1129.357
 20
-185.755
 30
0.0
 70
    40
  0
VERTEX
  5
38F
  8
EBENE01
 62
     4
 10
1129.357
 20
-185.755
 30
0.0
 70
    48
  0
VERTEX
  5
390
  8
EBENE01
 62
     4
 10
1128.800
 20
-185.541
 30
0.0
 70
    40
  0
VERTEX
  5
391
  8
EBENE01
 62
     4
 10
1128.800
 20
-185.541
 30
0.0
 70
    48
  0
VERTEX
  5
392
  8
EBENE01
 62
     4
 10
1128.800
 20
-185.541
 30
0.0
 70
    40
  0
VERTEX
  5
393
  8
EBENE01
 62
     4
 10
1128.800
 20
-185.541
 30
0.0
 70
    48
  0
VERTEX
  5
394
  8
EBENE01
 62
     4
 10
1128.286
 20
-185.284
 30
0.0
 70
    40
  0
VERTEX
  5
395
  8
EBENE01
 62
     4
 10
1128.286
 20
-185.284
 30
0.0
 70
    48
  0
VERTEX
  5
396
  8
EBENE01
 62
     4
 10
1127.729
 20
-184.984
 30
0.0
 70
    40
  0
VERTEX
  5
397
  8
EBENE01
 62
     4
 10
1127.729
 20
-184.984
 30
0.0
 70
    48
  0
VERTEX
  5
398
  8
EBENE01
 62
     4
 10
1127.729
 20
-184.984
 30
0.0
 70
    40
  0
VERTEX
  5
399
  8
EBENE01
 62
     4
 10
1127.729
 20
-184.984
 30
0.0
 70
    48
  0
VERTEX
  5
39A
  8
EBENE01
 62
     4
 10
1127.215
 20
-184.641
 30
0.0
 70
    40
  0
VERTEX
  5
39B
  8
EBENE01
 62
     4
 10
1127.215
 20
-184.641
 30
0.0
 70
    48
  0
VERTEX
  5
39C
  8
EBENE01
 62
     4
 10
1126.787
 20
-184.341
 30
0.0
 70
    40
  0
VERTEX
  5
39D
  8
EBENE01
 62
     4
 10
1126.787
 20
-184.341
 30
0.0
 70
    48
  0
VERTEX
  5
39E
  8
EBENE01
 62
     4
 10
1126.787
 20
-184.341
 30
0.0
 70
    40
  0
VERTEX
  5
39F
  8
EBENE01
 62
     4
 10
1126.787
 20
-184.341
 30
0.0
 70
    48
  0
VERTEX
  5
3A0
  8
EBENE01
 62
     4
 10
1126.530
 20
-183.999
 30
0.0
 70
    40
  0
VERTEX
  5
3A1
  8
EBENE01
 62
     4
 10
1126.530
 20
-183.999
 30
0.0
 70
    48
  0
VERTEX
  5
3A2
  8
EBENE01
 62
     4
 10
1126.401
 20
-183.741
 30
0.0
 70
    40
  0
VERTEX
  5
3A3
  8
EBENE01
 62
     4
 10
1126.401
 20
-183.741
 30
0.0
 70
    48
  0
VERTEX
  5
3A4
  8
EBENE01
 62
     4
 10
1126.401
 20
-183.741
 30
0.0
 70
    40
  0
VERTEX
  5
3A5
  8
EBENE01
 62
     4
 10
1126.401
 20
-183.741
 30
0.0
 70
    48
  0
VERTEX
  5
3A6
  8
EBENE01
 62
     4
 10
1126.358
 20
-183.442
 30
0.0
 70
    40
  0
VERTEX
  5
3A7
  8
EBENE01
 62
     4
 10
1126.358
 20
-183.442
 30
0.0
 70
    48
  0
VERTEX
  5
3A8
  8
EBENE01
 62
     4
 10
1126.401
 20
-183.185
 30
0.0
 70
    40
  0
VERTEX
  5
3A9
  8
EBENE01
 62
     4
 10
1126.401
 20
-183.185
 30
0.0
 70
    48
  0
VERTEX
  5
3AA
  8
EBENE01
 62
     4
 10
1126.401
 20
-183.185
 30
0.0
 70
    40
  0
VERTEX
  5
3AB
  8
EBENE01
 62
     4
 10
1126.401
 20
-183.185
 30
0.0
 70
    48
  0
VERTEX
  5
3AC
  8
EBENE01
 62
     4
 10
1126.487
 20
-182.928
 30
0.0
 70
    40
  0
VERTEX
  5
3AD
  8
EBENE01
 62
     4
 10
1126.487
 20
-182.928
 30
0.0
 70
    48
  0
VERTEX
  5
3AE
  8
EBENE01
 62
     4
 10
1126.615
 20
-182.628
 30
0.0
 70
    40
  0
VERTEX
  5
3AF
  8
EBENE01
 62
     4
 10
1126.615
 20
-182.628
 30
0.0
 70
    48
  0
VERTEX
  5
3B0
  8
EBENE01
 62
     4
 10
1126.615
 20
-182.628
 30
0.0
 70
    40
  0
VERTEX
  5
3B1
  8
EBENE01
 62
     4
 10
1126.615
 20
-182.628
 30
0.0
 70
    48
  0
VERTEX
  5
3B2
  8
EBENE01
 62
     4
 10
1126.915
 20
-182.371
 30
0.0
 70
    40
  0
VERTEX
  5
3B3
  8
EBENE01
 62
     4
 10
1126.915
 20
-182.371
 30
0.0
 70
    48
  0
VERTEX
  5
3B4
  8
EBENE01
 62
     4
 10
1127.258
 20
-182.157
 30
0.0
 70
    40
  0
VERTEX
  5
3B5
  8
EBENE01
 62
     4
 10
1127.258
 20
-182.157
 30
0.0
 70
    48
  0
VERTEX
  5
3B6
  8
EBENE01
 62
     4
 10
1127.258
 20
-182.157
 30
0.0
 70
    40
  0
VERTEX
  5
3B7
  8
EBENE01
 62
     4
 10
1127.258
 20
-182.157
 30
0.0
 70
    48
  0
VERTEX
  5
3B8
  8
EBENE01
 62
     4
 10
1127.729
 20
-181.942
 30
0.0
 70
    40
  0
VERTEX
  5
3B9
  8
EBENE01
 62
     4
 10
1127.729
 20
-181.942
 30
0.0
 70
    48
  0
VERTEX
  5
3BA
  8
EBENE01
 62
     4
 10
1128.286
 20
-181.814
 30
0.0
 70
    40
  0
VERTEX
  5
3BB
  8
EBENE01
 62
     4
 10
1128.286
 20
-181.814
 30
0.0
 70
    48
  0
VERTEX
  5
3BC
  8
EBENE01
 62
     4
 10
1128.286
 20
-181.814
 30
0.0
 70
    40
  0
VERTEX
  5
3BD
  8
EBENE01
 62
     4
 10
1128.286
 20
-181.814
 30
0.0
 70
    48
  0
VERTEX
  5
3BE
  8
EBENE01
 62
     4
 10
1128.800
 20
-181.728
 30
0.0
 70
    40
  0
VERTEX
  5
3BF
  8
EBENE01
 62
     4
 10
1128.800
 20
-181.728
 30
0.0
 70
    48
  0
VERTEX
  5
3C0
  8
EBENE01
 62
     4
 10
1129.357
 20
-181.685
 30
0.0
 70
    40
  0
VERTEX
  5
3C1
  8
EBENE01
 62
     4
 10
1129.357
 20
-181.685
 30
0.0
 70
    48
  0
VERTEX
  5
3C2
  8
EBENE01
 62
     4
 10
1129.357
 20
-181.685
 30
0.0
 70
    40
  0
VERTEX
  5
3C3
  8
EBENE01
 62
     4
 10
1129.357
 20
-181.685
 30
0.0
 70
    48
  0
VERTEX
  5
3C4
  8
EBENE01
 62
     4
 10
1129.871
 20
-181.685
 30
0.0
 70
    40
  0
VERTEX
  5
3C5
  8
EBENE01
 62
     4
 10
1129.871
 20
-181.685
 30
0.0
 70
    48
  0
VERTEX
  5
3C6
  8
EBENE01
 62
     4
 10
1130.428
 20
-181.685
 30
0.0
 70
    40
  0
VERTEX
  5
3C7
  8
EBENE01
 62
     4
 10
1130.428
 20
-181.685
 30
0.0
 70
    48
  0
VERTEX
  5
3C8
  8
EBENE01
 62
     4
 10
1130.428
 20
-181.685
 30
0.0
 70
    40
  0
VERTEX
  5
3C9
  8
EBENE01
 62
     4
 10
1130.428
 20
-181.685
 30
0.0
 70
    48
  0
VERTEX
  5
3CA
  8
EBENE01
 62
     4
 10
1130.942
 20
-181.728
 30
0.0
 70
    40
  0
VERTEX
  5
3CB
  8
EBENE01
 62
     4
 10
1130.942
 20
-181.728
 30
0.0
 70
    48
  0
VERTEX
  5
3CC
  8
EBENE01
 62
     4
 10
1131.499
 20
-181.814
 30
0.0
 70
    40
  0
VERTEX
  5
3CD
  8
EBENE01
 62
     4
 10
1131.499
 20
-181.814
 30
0.0
 70
    48
  0
VERTEX
  5
3CE
  8
EBENE01
 62
     4
 10
1131.499
 20
-181.814
 30
0.0
 70
    40
  0
VERTEX
  5
3CF
  8
EBENE01
 62
     4
 10
1131.499
 20
-181.814
 30
0.0
 70
    48
  0
VERTEX
  5
3D0
  8
EBENE01
 62
     4
 10
1132.013
 20
-181.857
 30
0.0
 70
    40
  0
VERTEX
  5
3D1
  8
EBENE01
 62
     4
 10
1132.013
 20
-181.857
 30
0.0
 70
    48
  0
VERTEX
  5
3D2
  8
EBENE01
 62
     4
 10
1132.570
 20
-181.985
 30
0.0
 70
    40
  0
VERTEX
  5
3D3
  8
EBENE01
 62
     4
 10
1132.570
 20
-181.985
 30
0.0
 70
    48
  0
VERTEX
  5
3D4
  8
EBENE01
 62
     4
 10
1132.570
 20
-181.985
 30
0.0
 70
    40
  0
VERTEX
  5
3D5
  8
EBENE01
 62
     4
 10
1132.570
 20
-181.985
 30
0.0
 70
    48
  0
VERTEX
  5
3D6
  8
EBENE01
 62
     4
 10
1133.084
 20
-182.071
 30
0.0
 70
    40
  0
VERTEX
  5
3D7
  8
EBENE01
 62
     4
 10
1133.084
 20
-182.071
 30
0.0
 70
    48
  0
VERTEX
  5
3D8
  8
EBENE01
 62
     4
 10
1133.641
 20
-182.199
 30
0.0
 70
    40
  0
VERTEX
  5
3D9
  8
EBENE01
 62
     4
 10
1133.641
 20
-182.199
 30
0.0
 70
    48
  0
VERTEX
  5
3DA
  8
EBENE01
 62
     4
 10
1133.641
 20
-182.199
 30
0.0
 70
    40
  0
VERTEX
  5
3DB
  8
EBENE01
 62
     4
 10
1133.641
 20
-182.199
 30
0.0
 70
    48
  0
VERTEX
  5
3DC
  8
EBENE01
 62
     4
 10
1134.155
 20
-182.371
 30
0.0
 70
    40
  0
VERTEX
  5
3DD
  8
EBENE01
 62
     4
 10
1134.155
 20
-182.371
 30
0.0
 70
    48
  0
VERTEX
  5
3DE
  8
EBENE01
 62
     4
 10
1134.669
 20
-182.499
 30
0.0
 70
    40
  0
VERTEX
  5
3DF
  8
EBENE01
 62
     4
 10
1134.669
 20
-182.499
 30
0.0
 70
    48
  0
VERTEX
  5
3E0
  8
EBENE01
 62
     4
 10
1134.669
 20
-182.499
 30
0.0
 70
    40
  0
VERTEX
  5
3E1
  8
EBENE01
 62
     4
 10
1134.669
 20
-182.499
 30
0.0
 70
    48
  0
VERTEX
  5
3E2
  8
EBENE01
 62
     4
 10
1135.097
 20
-182.628
 30
0.0
 70
    40
  0
VERTEX
  5
3E3
  8
EBENE01
 62
     4
 10
1135.097
 20
-182.628
 30
0.0
 70
    48
  0
VERTEX
  5
3E4
  8
EBENE01
 62
     4
 10
1135.569
 20
-182.756
 30
0.0
 70
    40
  0
VERTEX
  5
3E5
  8
EBENE01
 62
     4
 10
1135.569
 20
-182.756
 30
0.0
 70
    48
  0
SEQEND
  5
3E6
  8
EBENE01
 62
     4
  0
POLYLINE
  5
3E7
  8
EBENE01
 62
     4
 66
     1
 10
-58.769
 20
-267.184
 30
0.0
 70
    12
 75
     6
  0
VERTEX
  5
3E8
  8
EBENE01
 62
     4
 10
1010.783
 20
-178.558
 30
0.0
 70
    40
  0
VERTEX
  5
3E9
  8
EBENE01
 62
     4
 10
1010.783
 20
-178.558
 30
0.0
 70
    48
  0
VERTEX
  5
3EA
  8
EBENE01
 62
     4
 10
1009.712
 20
-178.344
 30
0.0
 70
    40
  0
VERTEX
  5
3EB
  8
EBENE01
 62
     4
 10
1009.712
 20
-178.344
 30
0.0
 70
    48
  0
VERTEX
  5
3EC
  8
EBENE01
 62
     4
 10
1008.941
 20
-178.215
 30
0.0
 70
    40
  0
VERTEX
  5
3ED
  8
EBENE01
 62
     4
 10
1008.941
 20
-178.215
 30
0.0
 70
    48
  0
VERTEX
  5
3EE
  8
EBENE01
 62
     4
 10
1008.941
 20
-178.215
 30
0.0
 70
    40
  0
VERTEX
  5
3EF
  8
EBENE01
 62
     4
 10
1008.941
 20
-178.215
 30
0.0
 70
    48
  0
VERTEX
  5
3F0
  8
EBENE01
 62
     4
 10
1008.341
 20
-178.130
 30
0.0
 70
    40
  0
VERTEX
  5
3F1
  8
EBENE01
 62
     4
 10
1008.341
 20
-178.130
 30
0.0
 70
    48
  0
VERTEX
  5
3F2
  8
EBENE01
 62
     4
 10
1007.784
 20
-178.044
 30
0.0
 70
    40
  0
VERTEX
  5
3F3
  8
EBENE01
 62
     4
 10
1007.784
 20
-178.044
 30
0.0
 70
    48
  0
VERTEX
  5
3F4
  8
EBENE01
 62
     4
 10
1007.784
 20
-178.044
 30
0.0
 70
    40
  0
VERTEX
  5
3F5
  8
EBENE01
 62
     4
 10
1007.784
 20
-178.044
 30
0.0
 70
    48
  0
VERTEX
  5
3F6
  8
EBENE01
 62
     4
 10
1007.270
 20
-178.001
 30
0.0
 70
    40
  0
VERTEX
  5
3F7
  8
EBENE01
 62
     4
 10
1007.270
 20
-178.001
 30
0.0
 70
    48
  0
VERTEX
  5
3F8
  8
EBENE01
 62
     4
 10
1006.713
 20
-177.916
 30
0.0
 70
    40
  0
VERTEX
  5
3F9
  8
EBENE01
 62
     4
 10
1006.713
 20
-177.916
 30
0.0
 70
    48
  0
VERTEX
  5
3FA
  8
EBENE01
 62
     4
 10
1006.713
 20
-177.916
 30
0.0
 70
    40
  0
VERTEX
  5
3FB
  8
EBENE01
 62
     4
 10
1006.713
 20
-177.916
 30
0.0
 70
    48
  0
VERTEX
  5
3FC
  8
EBENE01
 62
     4
 10
1006.199
 20
-177.873
 30
0.0
 70
    40
  0
VERTEX
  5
3FD
  8
EBENE01
 62
     4
 10
1006.199
 20
-177.873
 30
0.0
 70
    48
  0
VERTEX
  5
3FE
  8
EBENE01
 62
     4
 10
1005.642
 20
-177.830
 30
0.0
 70
    40
  0
VERTEX
  5
3FF
  8
EBENE01
 62
     4
 10
1005.642
 20
-177.830
 30
0.0
 70
    48
  0
VERTEX
  5
400
  8
EBENE01
 62
     4
 10
1005.642
 20
-177.830
 30
0.0
 70
    40
  0
VERTEX
  5
401
  8
EBENE01
 62
     4
 10
1005.642
 20
-177.830
 30
0.0
 70
    48
  0
VERTEX
  5
402
  8
EBENE01
 62
     4
 10
1005.128
 20
-177.787
 30
0.0
 70
    40
  0
VERTEX
  5
403
  8
EBENE01
 62
     4
 10
1005.128
 20
-177.787
 30
0.0
 70
    48
  0
VERTEX
  5
404
  8
EBENE01
 62
     4
 10
1004.571
 20
-177.787
 30
0.0
 70
    40
  0
VERTEX
  5
405
  8
EBENE01
 62
     4
 10
1004.571
 20
-177.787
 30
0.0
 70
    48
  0
VERTEX
  5
406
  8
EBENE01
 62
     4
 10
1004.571
 20
-177.787
 30
0.0
 70
    40
  0
VERTEX
  5
407
  8
EBENE01
 62
     4
 10
1004.571
 20
-177.787
 30
0.0
 70
    48
  0
VERTEX
  5
408
  8
EBENE01
 62
     4
 10
1004.057
 20
-177.787
 30
0.0
 70
    40
  0
VERTEX
  5
409
  8
EBENE01
 62
     4
 10
1004.057
 20
-177.787
 30
0.0
 70
    48
  0
VERTEX
  5
40A
  8
EBENE01
 62
     4
 10
1003.500
 20
-177.830
 30
0.0
 70
    40
  0
VERTEX
  5
40B
  8
EBENE01
 62
     4
 10
1003.500
 20
-177.830
 30
0.0
 70
    48
  0
VERTEX
  5
40C
  8
EBENE01
 62
     4
 10
1003.500
 20
-177.830
 30
0.0
 70
    40
  0
VERTEX
  5
40D
  8
EBENE01
 62
     4
 10
1003.500
 20
-177.830
 30
0.0
 70
    48
  0
VERTEX
  5
40E
  8
EBENE01
 62
     4
 10
1002.986
 20
-177.873
 30
0.0
 70
    40
  0
VERTEX
  5
40F
  8
EBENE01
 62
     4
 10
1002.986
 20
-177.873
 30
0.0
 70
    48
  0
VERTEX
  5
410
  8
EBENE01
 62
     4
 10
1002.429
 20
-177.958
 30
0.0
 70
    40
  0
VERTEX
  5
411
  8
EBENE01
 62
     4
 10
1002.429
 20
-177.958
 30
0.0
 70
    48
  0
VERTEX
  5
412
  8
EBENE01
 62
     4
 10
1002.429
 20
-177.958
 30
0.0
 70
    40
  0
VERTEX
  5
413
  8
EBENE01
 62
     4
 10
1002.429
 20
-177.958
 30
0.0
 70
    48
  0
VERTEX
  5
414
  8
EBENE01
 62
     4
 10
1001.915
 20
-178.044
 30
0.0
 70
    40
  0
VERTEX
  5
415
  8
EBENE01
 62
     4
 10
1001.915
 20
-178.044
 30
0.0
 70
    48
  0
VERTEX
  5
416
  8
EBENE01
 62
     4
 10
1001.359
 20
-178.130
 30
0.0
 70
    40
  0
VERTEX
  5
417
  8
EBENE01
 62
     4
 10
1001.359
 20
-178.130
 30
0.0
 70
    48
  0
VERTEX
  5
418
  8
EBENE01
 62
     4
 10
1001.359
 20
-178.130
 30
0.0
 70
    40
  0
VERTEX
  5
419
  8
EBENE01
 62
     4
 10
1001.359
 20
-178.130
 30
0.0
 70
    48
  0
VERTEX
  5
41A
  8
EBENE01
 62
     4
 10
1000.844
 20
-178.258
 30
0.0
 70
    40
  0
VERTEX
  5
41B
  8
EBENE01
 62
     4
 10
1000.844
 20
-178.258
 30
0.0
 70
    48
  0
VERTEX
  5
41C
  8
EBENE01
 62
     4
 10
1000.288
 20
-178.387
 30
0.0
 70
    40
  0
VERTEX
  5
41D
  8
EBENE01
 62
     4
 10
1000.288
 20
-178.387
 30
0.0
 70
    48
  0
VERTEX
  5
41E
  8
EBENE01
 62
     4
 10
1000.288
 20
-178.387
 30
0.0
 70
    40
  0
VERTEX
  5
41F
  8
EBENE01
 62
     4
 10
1000.288
 20
-178.387
 30
0.0
 70
    48
  0
VERTEX
  5
420
  8
EBENE01
 62
     4
 10
999.774
 20
-178.601
 30
0.0
 70
    40
  0
VERTEX
  5
421
  8
EBENE01
 62
     4
 10
999.774
 20
-178.601
 30
0.0
 70
    48
  0
VERTEX
  5
422
  8
EBENE01
 62
     4
 10
999.217
 20
-178.815
 30
0.0
 70
    40
  0
VERTEX
  5
423
  8
EBENE01
 62
     4
 10
999.217
 20
-178.815
 30
0.0
 70
    48
  0
VERTEX
  5
424
  8
EBENE01
 62
     4
 10
999.217
 20
-178.815
 30
0.0
 70
    40
  0
VERTEX
  5
425
  8
EBENE01
 62
     4
 10
999.217
 20
-178.815
 30
0.0
 70
    48
  0
VERTEX
  5
426
  8
EBENE01
 62
     4
 10
998.703
 20
-179.072
 30
0.0
 70
    40
  0
VERTEX
  5
427
  8
EBENE01
 62
     4
 10
998.703
 20
-179.072
 30
0.0
 70
    48
  0
VERTEX
  5
428
  8
EBENE01
 62
     4
 10
998.146
 20
-179.372
 30
0.0
 70
    40
  0
VERTEX
  5
429
  8
EBENE01
 62
     4
 10
998.146
 20
-179.372
 30
0.0
 70
    48
  0
VERTEX
  5
42A
  8
EBENE01
 62
     4
 10
998.146
 20
-179.372
 30
0.0
 70
    40
  0
VERTEX
  5
42B
  8
EBENE01
 62
     4
 10
998.146
 20
-179.372
 30
0.0
 70
    48
  0
VERTEX
  5
42C
  8
EBENE01
 62
     4
 10
997.632
 20
-179.758
 30
0.0
 70
    40
  0
VERTEX
  5
42D
  8
EBENE01
 62
     4
 10
997.632
 20
-179.758
 30
0.0
 70
    48
  0
VERTEX
  5
42E
  8
EBENE01
 62
     4
 10
997.160
 20
-180.186
 30
0.0
 70
    40
  0
VERTEX
  5
42F
  8
EBENE01
 62
     4
 10
997.160
 20
-180.186
 30
0.0
 70
    48
  0
VERTEX
  5
430
  8
EBENE01
 62
     4
 10
997.160
 20
-180.186
 30
0.0
 70
    40
  0
VERTEX
  5
431
  8
EBENE01
 62
     4
 10
997.160
 20
-180.186
 30
0.0
 70
    48
  0
VERTEX
  5
432
  8
EBENE01
 62
     4
 10
996.775
 20
-180.614
 30
0.0
 70
    40
  0
VERTEX
  5
433
  8
EBENE01
 62
     4
 10
996.775
 20
-180.614
 30
0.0
 70
    48
  0
VERTEX
  5
434
  8
EBENE01
 62
     4
 10
996.475
 20
-181.086
 30
0.0
 70
    40
  0
VERTEX
  5
435
  8
EBENE01
 62
     4
 10
996.475
 20
-181.086
 30
0.0
 70
    48
  0
VERTEX
  5
436
  8
EBENE01
 62
     4
 10
996.475
 20
-181.086
 30
0.0
 70
    40
  0
VERTEX
  5
437
  8
EBENE01
 62
     4
 10
996.475
 20
-181.086
 30
0.0
 70
    48
  0
VERTEX
  5
438
  8
EBENE01
 62
     4
 10
996.175
 20
-181.600
 30
0.0
 70
    40
  0
VERTEX
  5
439
  8
EBENE01
 62
     4
 10
996.175
 20
-181.600
 30
0.0
 70
    48
  0
VERTEX
  5
43A
  8
EBENE01
 62
     4
 10
995.961
 20
-182.114
 30
0.0
 70
    40
  0
VERTEX
  5
43B
  8
EBENE01
 62
     4
 10
995.961
 20
-182.114
 30
0.0
 70
    48
  0
VERTEX
  5
43C
  8
EBENE01
 62
     4
 10
995.961
 20
-182.114
 30
0.0
 70
    40
  0
VERTEX
  5
43D
  8
EBENE01
 62
     4
 10
995.961
 20
-182.114
 30
0.0
 70
    48
  0
VERTEX
  5
43E
  8
EBENE01
 62
     4
 10
995.747
 20
-182.628
 30
0.0
 70
    40
  0
VERTEX
  5
43F
  8
EBENE01
 62
     4
 10
995.747
 20
-182.628
 30
0.0
 70
    48
  0
VERTEX
  5
440
  8
EBENE01
 62
     4
 10
995.618
 20
-183.185
 30
0.0
 70
    40
  0
VERTEX
  5
441
  8
EBENE01
 62
     4
 10
995.618
 20
-183.185
 30
0.0
 70
    48
  0
VERTEX
  5
442
  8
EBENE01
 62
     4
 10
995.618
 20
-183.185
 30
0.0
 70
    40
  0
VERTEX
  5
443
  8
EBENE01
 62
     4
 10
995.618
 20
-183.185
 30
0.0
 70
    48
  0
VERTEX
  5
444
  8
EBENE01
 62
     4
 10
995.533
 20
-183.699
 30
0.0
 70
    40
  0
VERTEX
  5
445
  8
EBENE01
 62
     4
 10
995.533
 20
-183.699
 30
0.0
 70
    48
  0
VERTEX
  5
446
  8
EBENE01
 62
     4
 10
995.533
 20
-184.256
 30
0.0
 70
    40
  0
VERTEX
  5
447
  8
EBENE01
 62
     4
 10
995.533
 20
-184.256
 30
0.0
 70
    48
  0
VERTEX
  5
448
  8
EBENE01
 62
     4
 10
995.533
 20
-184.256
 30
0.0
 70
    40
  0
VERTEX
  5
449
  8
EBENE01
 62
     4
 10
995.533
 20
-184.256
 30
0.0
 70
    48
  0
VERTEX
  5
44A
  8
EBENE01
 62
     4
 10
995.533
 20
-184.770
 30
0.0
 70
    40
  0
VERTEX
  5
44B
  8
EBENE01
 62
     4
 10
995.533
 20
-184.770
 30
0.0
 70
    48
  0
VERTEX
  5
44C
  8
EBENE01
 62
     4
 10
995.618
 20
-185.326
 30
0.0
 70
    40
  0
VERTEX
  5
44D
  8
EBENE01
 62
     4
 10
995.618
 20
-185.326
 30
0.0
 70
    48
  0
VERTEX
  5
44E
  8
EBENE01
 62
     4
 10
995.618
 20
-185.326
 30
0.0
 70
    40
  0
VERTEX
  5
44F
  8
EBENE01
 62
     4
 10
995.618
 20
-185.326
 30
0.0
 70
    48
  0
VERTEX
  5
450
  8
EBENE01
 62
     4
 10
995.747
 20
-185.841
 30
0.0
 70
    40
  0
VERTEX
  5
451
  8
EBENE01
 62
     4
 10
995.747
 20
-185.841
 30
0.0
 70
    48
  0
VERTEX
  5
452
  8
EBENE01
 62
     4
 10
995.961
 20
-186.397
 30
0.0
 70
    40
  0
VERTEX
  5
453
  8
EBENE01
 62
     4
 10
995.961
 20
-186.397
 30
0.0
 70
    48
  0
VERTEX
  5
454
  8
EBENE01
 62
     4
 10
995.961
 20
-186.397
 30
0.0
 70
    40
  0
VERTEX
  5
455
  8
EBENE01
 62
     4
 10
995.961
 20
-186.397
 30
0.0
 70
    48
  0
VERTEX
  5
456
  8
EBENE01
 62
     4
 10
996.175
 20
-186.911
 30
0.0
 70
    40
  0
VERTEX
  5
457
  8
EBENE01
 62
     4
 10
996.175
 20
-186.911
 30
0.0
 70
    48
  0
VERTEX
  5
458
  8
EBENE01
 62
     4
 10
996.475
 20
-187.468
 30
0.0
 70
    40
  0
VERTEX
  5
459
  8
EBENE01
 62
     4
 10
996.475
 20
-187.468
 30
0.0
 70
    48
  0
VERTEX
  5
45A
  8
EBENE01
 62
     4
 10
996.475
 20
-187.468
 30
0.0
 70
    40
  0
VERTEX
  5
45B
  8
EBENE01
 62
     4
 10
996.475
 20
-187.468
 30
0.0
 70
    48
  0
VERTEX
  5
45C
  8
EBENE01
 62
     4
 10
996.818
 20
-187.982
 30
0.0
 70
    40
  0
VERTEX
  5
45D
  8
EBENE01
 62
     4
 10
996.818
 20
-187.982
 30
0.0
 70
    48
  0
VERTEX
  5
45E
  8
EBENE01
 62
     4
 10
997.246
 20
-188.454
 30
0.0
 70
    40
  0
VERTEX
  5
45F
  8
EBENE01
 62
     4
 10
997.246
 20
-188.454
 30
0.0
 70
    48
  0
VERTEX
  5
460
  8
EBENE01
 62
     4
 10
997.246
 20
-188.454
 30
0.0
 70
    40
  0
VERTEX
  5
461
  8
EBENE01
 62
     4
 10
997.246
 20
-188.454
 30
0.0
 70
    48
  0
VERTEX
  5
462
  8
EBENE01
 62
     4
 10
997.674
 20
-188.925
 30
0.0
 70
    40
  0
VERTEX
  5
463
  8
EBENE01
 62
     4
 10
997.674
 20
-188.925
 30
0.0
 70
    48
  0
VERTEX
  5
464
  8
EBENE01
 62
     4
 10
998.189
 20
-189.310
 30
0.0
 70
    40
  0
VERTEX
  5
465
  8
EBENE01
 62
     4
 10
998.189
 20
-189.310
 30
0.0
 70
    48
  0
VERTEX
  5
466
  8
EBENE01
 62
     4
 10
998.189
 20
-189.310
 30
0.0
 70
    40
  0
VERTEX
  5
467
  8
EBENE01
 62
     4
 10
998.189
 20
-189.310
 30
0.0
 70
    48
  0
VERTEX
  5
468
  8
EBENE01
 62
     4
 10
998.703
 20
-189.653
 30
0.0
 70
    40
  0
VERTEX
  5
469
  8
EBENE01
 62
     4
 10
998.703
 20
-189.653
 30
0.0
 70
    48
  0
VERTEX
  5
46A
  8
EBENE01
 62
     4
 10
999.217
 20
-189.953
 30
0.0
 70
    40
  0
VERTEX
  5
46B
  8
EBENE01
 62
     4
 10
999.217
 20
-189.953
 30
0.0
 70
    48
  0
VERTEX
  5
46C
  8
EBENE01
 62
     4
 10
999.217
 20
-189.953
 30
0.0
 70
    40
  0
VERTEX
  5
46D
  8
EBENE01
 62
     4
 10
999.217
 20
-189.953
 30
0.0
 70
    48
  0
VERTEX
  5
46E
  8
EBENE01
 62
     4
 10
999.774
 20
-190.253
 30
0.0
 70
    40
  0
VERTEX
  5
46F
  8
EBENE01
 62
     4
 10
999.774
 20
-190.253
 30
0.0
 70
    48
  0
VERTEX
  5
470
  8
EBENE01
 62
     4
 10
1000.288
 20
-190.510
 30
0.0
 70
    40
  0
VERTEX
  5
471
  8
EBENE01
 62
     4
 10
1000.288
 20
-190.510
 30
0.0
 70
    48
  0
VERTEX
  5
472
  8
EBENE01
 62
     4
 10
1000.288
 20
-190.510
 30
0.0
 70
    40
  0
VERTEX
  5
473
  8
EBENE01
 62
     4
 10
1000.288
 20
-190.510
 30
0.0
 70
    48
  0
VERTEX
  5
474
  8
EBENE01
 62
     4
 10
1000.844
 20
-190.767
 30
0.0
 70
    40
  0
VERTEX
  5
475
  8
EBENE01
 62
     4
 10
1000.844
 20
-190.767
 30
0.0
 70
    48
  0
VERTEX
  5
476
  8
EBENE01
 62
     4
 10
1001.359
 20
-190.981
 30
0.0
 70
    40
  0
VERTEX
  5
477
  8
EBENE01
 62
     4
 10
1001.359
 20
-190.981
 30
0.0
 70
    48
  0
VERTEX
  5
478
  8
EBENE01
 62
     4
 10
1001.359
 20
-190.981
 30
0.0
 70
    40
  0
VERTEX
  5
479
  8
EBENE01
 62
     4
 10
1001.359
 20
-190.981
 30
0.0
 70
    48
  0
VERTEX
  5
47A
  8
EBENE01
 62
     4
 10
1001.915
 20
-191.238
 30
0.0
 70
    40
  0
VERTEX
  5
47B
  8
EBENE01
 62
     4
 10
1001.915
 20
-191.238
 30
0.0
 70
    48
  0
VERTEX
  5
47C
  8
EBENE01
 62
     4
 10
1002.429
 20
-191.495
 30
0.0
 70
    40
  0
VERTEX
  5
47D
  8
EBENE01
 62
     4
 10
1002.429
 20
-191.495
 30
0.0
 70
    48
  0
VERTEX
  5
47E
  8
EBENE01
 62
     4
 10
1002.429
 20
-191.495
 30
0.0
 70
    40
  0
VERTEX
  5
47F
  8
EBENE01
 62
     4
 10
1002.429
 20
-191.495
 30
0.0
 70
    48
  0
VERTEX
  5
480
  8
EBENE01
 62
     4
 10
1002.986
 20
-191.709
 30
0.0
 70
    40
  0
VERTEX
  5
481
  8
EBENE01
 62
     4
 10
1002.986
 20
-191.709
 30
0.0
 70
    48
  0
VERTEX
  5
482
  8
EBENE01
 62
     4
 10
1003.500
 20
-191.966
 30
0.0
 70
    40
  0
VERTEX
  5
483
  8
EBENE01
 62
     4
 10
1003.500
 20
-191.966
 30
0.0
 70
    48
  0
VERTEX
  5
484
  8
EBENE01
 62
     4
 10
1003.500
 20
-191.966
 30
0.0
 70
    40
  0
VERTEX
  5
485
  8
EBENE01
 62
     4
 10
1003.500
 20
-191.966
 30
0.0
 70
    48
  0
VERTEX
  5
486
  8
EBENE01
 62
     4
 10
1004.057
 20
-192.180
 30
0.0
 70
    40
  0
VERTEX
  5
487
  8
EBENE01
 62
     4
 10
1004.057
 20
-192.180
 30
0.0
 70
    48
  0
VERTEX
  5
488
  8
EBENE01
 62
     4
 10
1004.571
 20
-192.438
 30
0.0
 70
    40
  0
VERTEX
  5
489
  8
EBENE01
 62
     4
 10
1004.571
 20
-192.438
 30
0.0
 70
    48
  0
VERTEX
  5
48A
  8
EBENE01
 62
     4
 10
1004.571
 20
-192.438
 30
0.0
 70
    40
  0
VERTEX
  5
48B
  8
EBENE01
 62
     4
 10
1004.571
 20
-192.438
 30
0.0
 70
    48
  0
VERTEX
  5
48C
  8
EBENE01
 62
     4
 10
1005.085
 20
-192.695
 30
0.0
 70
    40
  0
VERTEX
  5
48D
  8
EBENE01
 62
     4
 10
1005.085
 20
-192.695
 30
0.0
 70
    48
  0
VERTEX
  5
48E
  8
EBENE01
 62
     4
 10
1005.514
 20
-192.994
 30
0.0
 70
    40
  0
VERTEX
  5
48F
  8
EBENE01
 62
     4
 10
1005.514
 20
-192.994
 30
0.0
 70
    48
  0
VERTEX
  5
490
  8
EBENE01
 62
     4
 10
1005.514
 20
-192.994
 30
0.0
 70
    40
  0
VERTEX
  5
491
  8
EBENE01
 62
     4
 10
1005.514
 20
-192.994
 30
0.0
 70
    48
  0
VERTEX
  5
492
  8
EBENE01
 62
     4
 10
1005.814
 20
-193.209
 30
0.0
 70
    40
  0
VERTEX
  5
493
  8
EBENE01
 62
     4
 10
1005.814
 20
-193.209
 30
0.0
 70
    48
  0
VERTEX
  5
494
  8
EBENE01
 62
     4
 10
1005.985
 20
-193.380
 30
0.0
 70
    40
  0
VERTEX
  5
495
  8
EBENE01
 62
     4
 10
1005.985
 20
-193.380
 30
0.0
 70
    48
  0
VERTEX
  5
496
  8
EBENE01
 62
     4
 10
1005.985
 20
-193.380
 30
0.0
 70
    40
  0
VERTEX
  5
497
  8
EBENE01
 62
     4
 10
1005.985
 20
-193.380
 30
0.0
 70
    48
  0
VERTEX
  5
498
  8
EBENE01
 62
     4
 10
1006.113
 20
-193.637
 30
0.0
 70
    40
  0
VERTEX
  5
499
  8
EBENE01
 62
     4
 10
1006.113
 20
-193.637
 30
0.0
 70
    48
  0
VERTEX
  5
49A
  8
EBENE01
 62
     4
 10
1006.199
 20
-193.894
 30
0.0
 70
    40
  0
VERTEX
  5
49B
  8
EBENE01
 62
     4
 10
1006.199
 20
-193.894
 30
0.0
 70
    48
  0
VERTEX
  5
49C
  8
EBENE01
 62
     4
 10
1006.199
 20
-193.894
 30
0.0
 70
    40
  0
VERTEX
  5
49D
  8
EBENE01
 62
     4
 10
1006.199
 20
-193.894
 30
0.0
 70
    48
  0
VERTEX
  5
49E
  8
EBENE01
 62
     4
 10
1006.242
 20
-194.151
 30
0.0
 70
    40
  0
VERTEX
  5
49F
  8
EBENE01
 62
     4
 10
1006.242
 20
-194.151
 30
0.0
 70
    48
  0
VERTEX
  5
4A0
  8
EBENE01
 62
     4
 10
1006.285
 20
-194.408
 30
0.0
 70
    40
  0
VERTEX
  5
4A1
  8
EBENE01
 62
     4
 10
1006.285
 20
-194.408
 30
0.0
 70
    48
  0
VERTEX
  5
4A2
  8
EBENE01
 62
     4
 10
1006.285
 20
-194.408
 30
0.0
 70
    40
  0
VERTEX
  5
4A3
  8
EBENE01
 62
     4
 10
1006.285
 20
-194.408
 30
0.0
 70
    48
  0
VERTEX
  5
4A4
  8
EBENE01
 62
     4
 10
1006.242
 20
-194.708
 30
0.0
 70
    40
  0
VERTEX
  5
4A5
  8
EBENE01
 62
     4
 10
1006.242
 20
-194.708
 30
0.0
 70
    48
  0
VERTEX
  5
4A6
  8
EBENE01
 62
     4
 10
1006.113
 20
-194.965
 30
0.0
 70
    40
  0
VERTEX
  5
4A7
  8
EBENE01
 62
     4
 10
1006.113
 20
-194.965
 30
0.0
 70
    48
  0
VERTEX
  5
4A8
  8
EBENE01
 62
     4
 10
1006.113
 20
-194.965
 30
0.0
 70
    40
  0
VERTEX
  5
4A9
  8
EBENE01
 62
     4
 10
1006.113
 20
-194.965
 30
0.0
 70
    48
  0
VERTEX
  5
4AA
  8
EBENE01
 62
     4
 10
1005.899
 20
-195.222
 30
0.0
 70
    40
  0
VERTEX
  5
4AB
  8
EBENE01
 62
     4
 10
1005.899
 20
-195.222
 30
0.0
 70
    48
  0
VERTEX
  5
4AC
  8
EBENE01
 62
     4
 10
1005.557
 20
-195.479
 30
0.0
 70
    40
  0
VERTEX
  5
4AD
  8
EBENE01
 62
     4
 10
1005.557
 20
-195.479
 30
0.0
 70
    48
  0
VERTEX
  5
4AE
  8
EBENE01
 62
     4
 10
1005.557
 20
-195.479
 30
0.0
 70
    40
  0
VERTEX
  5
4AF
  8
EBENE01
 62
     4
 10
1005.557
 20
-195.479
 30
0.0
 70
    48
  0
VERTEX
  5
4B0
  8
EBENE01
 62
     4
 10
1005.085
 20
-195.693
 30
0.0
 70
    40
  0
VERTEX
  5
4B1
  8
EBENE01
 62
     4
 10
1005.085
 20
-195.693
 30
0.0
 70
    48
  0
VERTEX
  5
4B2
  8
EBENE01
 62
     4
 10
1004.571
 20
-195.822
 30
0.0
 70
    40
  0
VERTEX
  5
4B3
  8
EBENE01
 62
     4
 10
1004.571
 20
-195.822
 30
0.0
 70
    48
  0
VERTEX
  5
4B4
  8
EBENE01
 62
     4
 10
1004.571
 20
-195.822
 30
0.0
 70
    40
  0
VERTEX
  5
4B5
  8
EBENE01
 62
     4
 10
1004.571
 20
-195.822
 30
0.0
 70
    48
  0
VERTEX
  5
4B6
  8
EBENE01
 62
     4
 10
1004.057
 20
-195.950
 30
0.0
 70
    40
  0
VERTEX
  5
4B7
  8
EBENE01
 62
     4
 10
1004.057
 20
-195.950
 30
0.0
 70
    48
  0
VERTEX
  5
4B8
  8
EBENE01
 62
     4
 10
1003.500
 20
-196.036
 30
0.0
 70
    40
  0
VERTEX
  5
4B9
  8
EBENE01
 62
     4
 10
1003.500
 20
-196.036
 30
0.0
 70
    48
  0
VERTEX
  5
4BA
  8
EBENE01
 62
     4
 10
1003.500
 20
-196.036
 30
0.0
 70
    40
  0
VERTEX
  5
4BB
  8
EBENE01
 62
     4
 10
1003.500
 20
-196.036
 30
0.0
 70
    48
  0
VERTEX
  5
4BC
  8
EBENE01
 62
     4
 10
1002.986
 20
-196.036
 30
0.0
 70
    40
  0
VERTEX
  5
4BD
  8
EBENE01
 62
     4
 10
1002.986
 20
-196.036
 30
0.0
 70
    48
  0
VERTEX
  5
4BE
  8
EBENE01
 62
     4
 10
1002.429
 20
-196.079
 30
0.0
 70
    40
  0
VERTEX
  5
4BF
  8
EBENE01
 62
     4
 10
1002.429
 20
-196.079
 30
0.0
 70
    48
  0
VERTEX
  5
4C0
  8
EBENE01
 62
     4
 10
1002.429
 20
-196.079
 30
0.0
 70
    40
  0
VERTEX
  5
4C1
  8
EBENE01
 62
     4
 10
1002.429
 20
-196.079
 30
0.0
 70
    48
  0
VERTEX
  5
4C2
  8
EBENE01
 62
     4
 10
1001.915
 20
-196.079
 30
0.0
 70
    40
  0
VERTEX
  5
4C3
  8
EBENE01
 62
     4
 10
1001.915
 20
-196.079
 30
0.0
 70
    48
  0
VERTEX
  5
4C4
  8
EBENE01
 62
     4
 10
1001.359
 20
-196.036
 30
0.0
 70
    40
  0
VERTEX
  5
4C5
  8
EBENE01
 62
     4
 10
1001.359
 20
-196.036
 30
0.0
 70
    48
  0
VERTEX
  5
4C6
  8
EBENE01
 62
     4
 10
1001.359
 20
-196.036
 30
0.0
 70
    40
  0
VERTEX
  5
4C7
  8
EBENE01
 62
     4
 10
1001.359
 20
-196.036
 30
0.0
 70
    48
  0
VERTEX
  5
4C8
  8
EBENE01
 62
     4
 10
1000.844
 20
-195.993
 30
0.0
 70
    40
  0
VERTEX
  5
4C9
  8
EBENE01
 62
     4
 10
1000.844
 20
-195.993
 30
0.0
 70
    48
  0
VERTEX
  5
4CA
  8
EBENE01
 62
     4
 10
1000.288
 20
-195.907
 30
0.0
 70
    40
  0
VERTEX
  5
4CB
  8
EBENE01
 62
     4
 10
1000.288
 20
-195.907
 30
0.0
 70
    48
  0
VERTEX
  5
4CC
  8
EBENE01
 62
     4
 10
1000.288
 20
-195.907
 30
0.0
 70
    40
  0
VERTEX
  5
4CD
  8
EBENE01
 62
     4
 10
1000.288
 20
-195.907
 30
0.0
 70
    48
  0
VERTEX
  5
4CE
  8
EBENE01
 62
     4
 10
999.774
 20
-195.865
 30
0.0
 70
    40
  0
VERTEX
  5
4CF
  8
EBENE01
 62
     4
 10
999.774
 20
-195.865
 30
0.0
 70
    48
  0
VERTEX
  5
4D0
  8
EBENE01
 62
     4
 10
999.217
 20
-195.822
 30
0.0
 70
    40
  0
VERTEX
  5
4D1
  8
EBENE01
 62
     4
 10
999.217
 20
-195.822
 30
0.0
 70
    48
  0
VERTEX
  5
4D2
  8
EBENE01
 62
     4
 10
999.217
 20
-195.822
 30
0.0
 70
    40
  0
VERTEX
  5
4D3
  8
EBENE01
 62
     4
 10
999.217
 20
-195.822
 30
0.0
 70
    48
  0
VERTEX
  5
4D4
  8
EBENE01
 62
     4
 10
998.660
 20
-195.693
 30
0.0
 70
    40
  0
VERTEX
  5
4D5
  8
EBENE01
 62
     4
 10
998.660
 20
-195.693
 30
0.0
 70
    48
  0
VERTEX
  5
4D6
  8
EBENE01
 62
     4
 10
998.060
 20
-195.565
 30
0.0
 70
    40
  0
VERTEX
  5
4D7
  8
EBENE01
 62
     4
 10
998.060
 20
-195.565
 30
0.0
 70
    48
  0
VERTEX
  5
4D8
  8
EBENE01
 62
     4
 10
998.060
 20
-195.565
 30
0.0
 70
    40
  0
VERTEX
  5
4D9
  8
EBENE01
 62
     4
 10
998.060
 20
-195.565
 30
0.0
 70
    48
  0
VERTEX
  5
4DA
  8
EBENE01
 62
     4
 10
997.289
 20
-195.393
 30
0.0
 70
    40
  0
VERTEX
  5
4DB
  8
EBENE01
 62
     4
 10
997.289
 20
-195.393
 30
0.0
 70
    48
  0
VERTEX
  5
4DC
  8
EBENE01
 62
     4
 10
996.004
 20
-195.051
 30
0.0
 70
    40
  0
VERTEX
  5
4DD
  8
EBENE01
 62
     4
 10
996.004
 20
-195.051
 30
0.0
 70
    48
  0
SEQEND
  5
4DE
  8
EBENE01
 62
     4
  0
POLYLINE
  5
4DF
  8
EBENE01
 62
     4
 66
     1
 10
-58.769
 20
-267.184
 30
0.0
 70
    12
 75
     6
  0
VERTEX
  5
4E0
  8
EBENE01
 62
     4
 10
996.004
 20
-199.334
 30
0.0
 70
    40
  0
VERTEX
  5
4E1
  8
EBENE01
 62
     4
 10
996.004
 20
-199.334
 30
0.0
 70
    48
  0
VERTEX
  5
4E2
  8
EBENE01
 62
     4
 10
997.289
 20
-199.591
 30
0.0
 70
    40
  0
VERTEX
  5
4E3
  8
EBENE01
 62
     4
 10
997.289
 20
-199.591
 30
0.0
 70
    48
  0
VERTEX
  5
4E4
  8
EBENE01
 62
     4
 10
998.060
 20
-199.763
 30
0.0
 70
    40
  0
VERTEX
  5
4E5
  8
EBENE01
 62
     4
 10
998.060
 20
-199.763
 30
0.0
 70
    48
  0
VERTEX
  5
4E6
  8
EBENE01
 62
     4
 10
998.060
 20
-199.763
 30
0.0
 70
    40
  0
VERTEX
  5
4E7
  8
EBENE01
 62
     4
 10
998.060
 20
-199.763
 30
0.0
 70
    48
  0
VERTEX
  5
4E8
  8
EBENE01
 62
     4
 10
998.660
 20
-199.848
 30
0.0
 70
    40
  0
VERTEX
  5
4E9
  8
EBENE01
 62
     4
 10
998.660
 20
-199.848
 30
0.0
 70
    48
  0
VERTEX
  5
4EA
  8
EBENE01
 62
     4
 10
999.217
 20
-199.934
 30
0.0
 70
    40
  0
VERTEX
  5
4EB
  8
EBENE01
 62
     4
 10
999.217
 20
-199.934
 30
0.0
 70
    48
  0
VERTEX
  5
4EC
  8
EBENE01
 62
     4
 10
999.217
 20
-199.934
 30
0.0
 70
    40
  0
VERTEX
  5
4ED
  8
EBENE01
 62
     4
 10
999.217
 20
-199.934
 30
0.0
 70
    48
  0
VERTEX
  5
4EE
  8
EBENE01
 62
     4
 10
999.774
 20
-200.020
 30
0.0
 70
    40
  0
VERTEX
  5
4EF
  8
EBENE01
 62
     4
 10
999.774
 20
-200.020
 30
0.0
 70
    48
  0
VERTEX
  5
4F0
  8
EBENE01
 62
     4
 10
1000.288
 20
-200.105
 30
0.0
 70
    40
  0
VERTEX
  5
4F1
  8
EBENE01
 62
     4
 10
1000.288
 20
-200.105
 30
0.0
 70
    48
  0
VERTEX
  5
4F2
  8
EBENE01
 62
     4
 10
1000.288
 20
-200.105
 30
0.0
 70
    40
  0
VERTEX
  5
4F3
  8
EBENE01
 62
     4
 10
1000.288
 20
-200.105
 30
0.0
 70
    48
  0
VERTEX
  5
4F4
  8
EBENE01
 62
     4
 10
1000.844
 20
-200.148
 30
0.0
 70
    40
  0
VERTEX
  5
4F5
  8
EBENE01
 62
     4
 10
1000.844
 20
-200.148
 30
0.0
 70
    48
  0
VERTEX
  5
4F6
  8
EBENE01
 62
     4
 10
1001.359
 20
-200.148
 30
0.0
 70
    40
  0
VERTEX
  5
4F7
  8
EBENE01
 62
     4
 10
1001.359
 20
-200.148
 30
0.0
 70
    48
  0
VERTEX
  5
4F8
  8
EBENE01
 62
     4
 10
1001.359
 20
-200.148
 30
0.0
 70
    40
  0
VERTEX
  5
4F9
  8
EBENE01
 62
     4
 10
1001.359
 20
-200.148
 30
0.0
 70
    48
  0
VERTEX
  5
4FA
  8
EBENE01
 62
     4
 10
1001.915
 20
-200.191
 30
0.0
 70
    40
  0
VERTEX
  5
4FB
  8
EBENE01
 62
     4
 10
1001.915
 20
-200.191
 30
0.0
 70
    48
  0
VERTEX
  5
4FC
  8
EBENE01
 62
     4
 10
1002.429
 20
-200.191
 30
0.0
 70
    40
  0
VERTEX
  5
4FD
  8
EBENE01
 62
     4
 10
1002.429
 20
-200.191
 30
0.0
 70
    48
  0
VERTEX
  5
4FE
  8
EBENE01
 62
     4
 10
1002.429
 20
-200.191
 30
0.0
 70
    40
  0
VERTEX
  5
4FF
  8
EBENE01
 62
     4
 10
1002.429
 20
-200.191
 30
0.0
 70
    48
  0
VERTEX
  5
500
  8
EBENE01
 62
     4
 10
1002.986
 20
-200.191
 30
0.0
 70
    40
  0
VERTEX
  5
501
  8
EBENE01
 62
     4
 10
1002.986
 20
-200.191
 30
0.0
 70
    48
  0
VERTEX
  5
502
  8
EBENE01
 62
     4
 10
1003.500
 20
-200.191
 30
0.0
 70
    40
  0
VERTEX
  5
503
  8
EBENE01
 62
     4
 10
1003.500
 20
-200.191
 30
0.0
 70
    48
  0
VERTEX
  5
504
  8
EBENE01
 62
     4
 10
1003.500
 20
-200.191
 30
0.0
 70
    40
  0
VERTEX
  5
505
  8
EBENE01
 62
     4
 10
1003.500
 20
-200.191
 30
0.0
 70
    48
  0
VERTEX
  5
506
  8
EBENE01
 62
     4
 10
1004.057
 20
-200.191
 30
0.0
 70
    40
  0
VERTEX
  5
507
  8
EBENE01
 62
     4
 10
1004.057
 20
-200.191
 30
0.0
 70
    48
  0
VERTEX
  5
508
  8
EBENE01
 62
     4
 10
1004.571
 20
-200.148
 30
0.0
 70
    40
  0
VERTEX
  5
509
  8
EBENE01
 62
     4
 10
1004.571
 20
-200.148
 30
0.0
 70
    48
  0
VERTEX
  5
50A
  8
EBENE01
 62
     4
 10
1004.571
 20
-200.148
 30
0.0
 70
    40
  0
VERTEX
  5
50B
  8
EBENE01
 62
     4
 10
1004.571
 20
-200.148
 30
0.0
 70
    48
  0
VERTEX
  5
50C
  8
EBENE01
 62
     4
 10
1005.128
 20
-200.105
 30
0.0
 70
    40
  0
VERTEX
  5
50D
  8
EBENE01
 62
     4
 10
1005.128
 20
-200.105
 30
0.0
 70
    48
  0
VERTEX
  5
50E
  8
EBENE01
 62
     4
 10
1005.642
 20
-200.020
 30
0.0
 70
    40
  0
VERTEX
  5
50F
  8
EBENE01
 62
     4
 10
1005.642
 20
-200.020
 30
0.0
 70
    48
  0
VERTEX
  5
510
  8
EBENE01
 62
     4
 10
1005.642
 20
-200.020
 30
0.0
 70
    40
  0
VERTEX
  5
511
  8
EBENE01
 62
     4
 10
1005.642
 20
-200.020
 30
0.0
 70
    48
  0
VERTEX
  5
512
  8
EBENE01
 62
     4
 10
1006.199
 20
-199.934
 30
0.0
 70
    40
  0
VERTEX
  5
513
  8
EBENE01
 62
     4
 10
1006.199
 20
-199.934
 30
0.0
 70
    48
  0
VERTEX
  5
514
  8
EBENE01
 62
     4
 10
1006.713
 20
-199.806
 30
0.0
 70
    40
  0
VERTEX
  5
515
  8
EBENE01
 62
     4
 10
1006.713
 20
-199.806
 30
0.0
 70
    48
  0
VERTEX
  5
516
  8
EBENE01
 62
     4
 10
1006.713
 20
-199.806
 30
0.0
 70
    40
  0
VERTEX
  5
517
  8
EBENE01
 62
     4
 10
1006.713
 20
-199.806
 30
0.0
 70
    48
  0
VERTEX
  5
518
  8
EBENE01
 62
     4
 10
1007.270
 20
-199.677
 30
0.0
 70
    40
  0
VERTEX
  5
519
  8
EBENE01
 62
     4
 10
1007.270
 20
-199.677
 30
0.0
 70
    48
  0
VERTEX
  5
51A
  8
EBENE01
 62
     4
 10
1007.784
 20
-199.549
 30
0.0
 70
    40
  0
VERTEX
  5
51B
  8
EBENE01
 62
     4
 10
1007.784
 20
-199.549
 30
0.0
 70
    48
  0
VERTEX
  5
51C
  8
EBENE01
 62
     4
 10
1007.784
 20
-199.549
 30
0.0
 70
    40
  0
VERTEX
  5
51D
  8
EBENE01
 62
     4
 10
1007.784
 20
-199.549
 30
0.0
 70
    48
  0
VERTEX
  5
51E
  8
EBENE01
 62
     4
 10
1008.341
 20
-199.334
 30
0.0
 70
    40
  0
VERTEX
  5
51F
  8
EBENE01
 62
     4
 10
1008.341
 20
-199.334
 30
0.0
 70
    48
  0
VERTEX
  5
520
  8
EBENE01
 62
     4
 10
1008.855
 20
-199.120
 30
0.0
 70
    40
  0
VERTEX
  5
521
  8
EBENE01
 62
     4
 10
1008.855
 20
-199.120
 30
0.0
 70
    48
  0
VERTEX
  5
522
  8
EBENE01
 62
     4
 10
1008.855
 20
-199.120
 30
0.0
 70
    40
  0
VERTEX
  5
523
  8
EBENE01
 62
     4
 10
1008.855
 20
-199.120
 30
0.0
 70
    48
  0
VERTEX
  5
524
  8
EBENE01
 62
     4
 10
1009.412
 20
-198.820
 30
0.0
 70
    40
  0
VERTEX
  5
525
  8
EBENE01
 62
     4
 10
1009.412
 20
-198.820
 30
0.0
 70
    48
  0
VERTEX
  5
526
  8
EBENE01
 62
     4
 10
1009.926
 20
-198.435
 30
0.0
 70
    40
  0
VERTEX
  5
527
  8
EBENE01
 62
     4
 10
1009.926
 20
-198.435
 30
0.0
 70
    48
  0
VERTEX
  5
528
  8
EBENE01
 62
     4
 10
1009.926
 20
-198.435
 30
0.0
 70
    40
  0
VERTEX
  5
529
  8
EBENE01
 62
     4
 10
1009.926
 20
-198.435
 30
0.0
 70
    48
  0
VERTEX
  5
52A
  8
EBENE01
 62
     4
 10
1010.483
 20
-198.006
 30
0.0
 70
    40
  0
VERTEX
  5
52B
  8
EBENE01
 62
     4
 10
1010.483
 20
-198.006
 30
0.0
 70
    48
  0
VERTEX
  5
52C
  8
EBENE01
 62
     4
 10
1010.954
 20
-197.535
 30
0.0
 70
    40
  0
VERTEX
  5
52D
  8
EBENE01
 62
     4
 10
1010.954
 20
-197.535
 30
0.0
 70
    48
  0
VERTEX
  5
52E
  8
EBENE01
 62
     4
 10
1010.954
 20
-197.535
 30
0.0
 70
    40
  0
VERTEX
  5
52F
  8
EBENE01
 62
     4
 10
1010.954
 20
-197.535
 30
0.0
 70
    48
  0
VERTEX
  5
530
  8
EBENE01
 62
     4
 10
1011.340
 20
-196.978
 30
0.0
 70
    40
  0
VERTEX
  5
531
  8
EBENE01
 62
     4
 10
1011.340
 20
-196.978
 30
0.0
 70
    48
  0
VERTEX
  5
532
  8
EBENE01
 62
     4
 10
1011.682
 20
-196.464
 30
0.0
 70
    40
  0
VERTEX
  5
533
  8
EBENE01
 62
     4
 10
1011.682
 20
-196.464
 30
0.0
 70
    48
  0
VERTEX
  5
534
  8
EBENE01
 62
     4
 10
1011.682
 20
-196.464
 30
0.0
 70
    40
  0
VERTEX
  5
535
  8
EBENE01
 62
     4
 10
1011.682
 20
-196.464
 30
0.0
 70
    48
  0
VERTEX
  5
536
  8
EBENE01
 62
     4
 10
1011.939
 20
-195.907
 30
0.0
 70
    40
  0
VERTEX
  5
537
  8
EBENE01
 62
     4
 10
1011.939
 20
-195.907
 30
0.0
 70
    48
  0
VERTEX
  5
538
  8
EBENE01
 62
     4
 10
1012.154
 20
-195.393
 30
0.0
 70
    40
  0
VERTEX
  5
539
  8
EBENE01
 62
     4
 10
1012.154
 20
-195.393
 30
0.0
 70
    48
  0
VERTEX
  5
53A
  8
EBENE01
 62
     4
 10
1012.154
 20
-195.393
 30
0.0
 70
    40
  0
VERTEX
  5
53B
  8
EBENE01
 62
     4
 10
1012.154
 20
-195.393
 30
0.0
 70
    48
  0
VERTEX
  5
53C
  8
EBENE01
 62
     4
 10
1012.325
 20
-194.836
 30
0.0
 70
    40
  0
VERTEX
  5
53D
  8
EBENE01
 62
     4
 10
1012.325
 20
-194.836
 30
0.0
 70
    48
  0
VERTEX
  5
53E
  8
EBENE01
 62
     4
 10
1012.411
 20
-194.322
 30
0.0
 70
    40
  0
VERTEX
  5
53F
  8
EBENE01
 62
     4
 10
1012.411
 20
-194.322
 30
0.0
 70
    48
  0
VERTEX
  5
540
  8
EBENE01
 62
     4
 10
1012.411
 20
-194.322
 30
0.0
 70
    40
  0
VERTEX
  5
541
  8
EBENE01
 62
     4
 10
1012.411
 20
-194.322
 30
0.0
 70
    48
  0
VERTEX
  5
542
  8
EBENE01
 62
     4
 10
1012.453
 20
-193.765
 30
0.0
 70
    40
  0
VERTEX
  5
543
  8
EBENE01
 62
     4
 10
1012.453
 20
-193.765
 30
0.0
 70
    48
  0
VERTEX
  5
544
  8
EBENE01
 62
     4
 10
1012.496
 20
-193.251
 30
0.0
 70
    40
  0
VERTEX
  5
545
  8
EBENE01
 62
     4
 10
1012.496
 20
-193.251
 30
0.0
 70
    48
  0
VERTEX
  5
546
  8
EBENE01
 62
     4
 10
1012.496
 20
-193.251
 30
0.0
 70
    40
  0
VERTEX
  5
547
  8
EBENE01
 62
     4
 10
1012.496
 20
-193.251
 30
0.0
 70
    48
  0
VERTEX
  5
548
  8
EBENE01
 62
     4
 10
1012.453
 20
-192.695
 30
0.0
 70
    40
  0
VERTEX
  5
549
  8
EBENE01
 62
     4
 10
1012.453
 20
-192.695
 30
0.0
 70
    48
  0
VERTEX
  5
54A
  8
EBENE01
 62
     4
 10
1012.325
 20
-192.180
 30
0.0
 70
    40
  0
VERTEX
  5
54B
  8
EBENE01
 62
     4
 10
1012.325
 20
-192.180
 30
0.0
 70
    48
  0
VERTEX
  5
54C
  8
EBENE01
 62
     4
 10
1012.325
 20
-192.180
 30
0.0
 70
    40
  0
VERTEX
  5
54D
  8
EBENE01
 62
     4
 10
1012.325
 20
-192.180
 30
0.0
 70
    48
  0
VERTEX
  5
54E
  8
EBENE01
 62
     4
 10
1012.196
 20
-191.624
 30
0.0
 70
    40
  0
VERTEX
  5
54F
  8
EBENE01
 62
     4
 10
1012.196
 20
-191.624
 30
0.0
 70
    48
  0
VERTEX
  5
550
  8
EBENE01
 62
     4
 10
1011.939
 20
-191.110
 30
0.0
 70
    40
  0
VERTEX
  5
551
  8
EBENE01
 62
     4
 10
1011.939
 20
-191.110
 30
0.0
 70
    48
  0
VERTEX
  5
552
  8
EBENE01
 62
     4
 10
1011.939
 20
-191.110
 30
0.0
 70
    40
  0
VERTEX
  5
553
  8
EBENE01
 62
     4
 10
1011.939
 20
-191.110
 30
0.0
 70
    48
  0
VERTEX
  5
554
  8
EBENE01
 62
     4
 10
1011.682
 20
-190.553
 30
0.0
 70
    40
  0
VERTEX
  5
555
  8
EBENE01
 62
     4
 10
1011.682
 20
-190.553
 30
0.0
 70
    48
  0
VERTEX
  5
556
  8
EBENE01
 62
     4
 10
1011.382
 20
-190.039
 30
0.0
 70
    40
  0
VERTEX
  5
557
  8
EBENE01
 62
     4
 10
1011.382
 20
-190.039
 30
0.0
 70
    48
  0
VERTEX
  5
558
  8
EBENE01
 62
     4
 10
1011.382
 20
-190.039
 30
0.0
 70
    40
  0
VERTEX
  5
559
  8
EBENE01
 62
     4
 10
1011.382
 20
-190.039
 30
0.0
 70
    48
  0
VERTEX
  5
55A
  8
EBENE01
 62
     4
 10
1010.954
 20
-189.525
 30
0.0
 70
    40
  0
VERTEX
  5
55B
  8
EBENE01
 62
     4
 10
1010.954
 20
-189.525
 30
0.0
 70
    48
  0
VERTEX
  5
55C
  8
EBENE01
 62
     4
 10
1010.440
 20
-189.011
 30
0.0
 70
    40
  0
VERTEX
  5
55D
  8
EBENE01
 62
     4
 10
1010.440
 20
-189.011
 30
0.0
 70
    48
  0
VERTEX
  5
55E
  8
EBENE01
 62
     4
 10
1010.440
 20
-189.011
 30
0.0
 70
    40
  0
VERTEX
  5
55F
  8
EBENE01
 62
     4
 10
1010.440
 20
-189.011
 30
0.0
 70
    48
  0
VERTEX
  5
560
  8
EBENE01
 62
     4
 10
1009.926
 20
-188.539
 30
0.0
 70
    40
  0
VERTEX
  5
561
  8
EBENE01
 62
     4
 10
1009.926
 20
-188.539
 30
0.0
 70
    48
  0
VERTEX
  5
562
  8
EBENE01
 62
     4
 10
1009.412
 20
-188.154
 30
0.0
 70
    40
  0
VERTEX
  5
563
  8
EBENE01
 62
     4
 10
1009.412
 20
-188.154
 30
0.0
 70
    48
  0
VERTEX
  5
564
  8
EBENE01
 62
     4
 10
1009.412
 20
-188.154
 30
0.0
 70
    40
  0
VERTEX
  5
565
  8
EBENE01
 62
     4
 10
1009.412
 20
-188.154
 30
0.0
 70
    48
  0
VERTEX
  5
566
  8
EBENE01
 62
     4
 10
1008.855
 20
-187.811
 30
0.0
 70
    40
  0
VERTEX
  5
567
  8
EBENE01
 62
     4
 10
1008.855
 20
-187.811
 30
0.0
 70
    48
  0
VERTEX
  5
568
  8
EBENE01
 62
     4
 10
1008.341
 20
-187.511
 30
0.0
 70
    40
  0
VERTEX
  5
569
  8
EBENE01
 62
     4
 10
1008.341
 20
-187.511
 30
0.0
 70
    48
  0
VERTEX
  5
56A
  8
EBENE01
 62
     4
 10
1008.341
 20
-187.511
 30
0.0
 70
    40
  0
VERTEX
  5
56B
  8
EBENE01
 62
     4
 10
1008.341
 20
-187.511
 30
0.0
 70
    48
  0
VERTEX
  5
56C
  8
EBENE01
 62
     4
 10
1007.784
 20
-187.211
 30
0.0
 70
    40
  0
VERTEX
  5
56D
  8
EBENE01
 62
     4
 10
1007.784
 20
-187.211
 30
0.0
 70
    48
  0
VERTEX
  5
56E
  8
EBENE01
 62
     4
 10
1007.270
 20
-186.997
 30
0.0
 70
    40
  0
VERTEX
  5
56F
  8
EBENE01
 62
     4
 10
1007.270
 20
-186.997
 30
0.0
 70
    48
  0
VERTEX
  5
570
  8
EBENE01
 62
     4
 10
1007.270
 20
-186.997
 30
0.0
 70
    40
  0
VERTEX
  5
571
  8
EBENE01
 62
     4
 10
1007.270
 20
-186.997
 30
0.0
 70
    48
  0
VERTEX
  5
572
  8
EBENE01
 62
     4
 10
1006.713
 20
-186.740
 30
0.0
 70
    40
  0
VERTEX
  5
573
  8
EBENE01
 62
     4
 10
1006.713
 20
-186.740
 30
0.0
 70
    48
  0
VERTEX
  5
574
  8
EBENE01
 62
     4
 10
1006.199
 20
-186.483
 30
0.0
 70
    40
  0
VERTEX
  5
575
  8
EBENE01
 62
     4
 10
1006.199
 20
-186.483
 30
0.0
 70
    48
  0
VERTEX
  5
576
  8
EBENE01
 62
     4
 10
1006.199
 20
-186.483
 30
0.0
 70
    40
  0
VERTEX
  5
577
  8
EBENE01
 62
     4
 10
1006.199
 20
-186.483
 30
0.0
 70
    48
  0
VERTEX
  5
578
  8
EBENE01
 62
     4
 10
1005.642
 20
-186.226
 30
0.0
 70
    40
  0
VERTEX
  5
579
  8
EBENE01
 62
     4
 10
1005.642
 20
-186.226
 30
0.0
 70
    48
  0
VERTEX
  5
57A
  8
EBENE01
 62
     4
 10
1005.128
 20
-185.969
 30
0.0
 70
    40
  0
VERTEX
  5
57B
  8
EBENE01
 62
     4
 10
1005.128
 20
-185.969
 30
0.0
 70
    48
  0
VERTEX
  5
57C
  8
EBENE01
 62
     4
 10
1005.128
 20
-185.969
 30
0.0
 70
    40
  0
VERTEX
  5
57D
  8
EBENE01
 62
     4
 10
1005.128
 20
-185.969
 30
0.0
 70
    48
  0
VERTEX
  5
57E
  8
EBENE01
 62
     4
 10
1004.571
 20
-185.755
 30
0.0
 70
    40
  0
VERTEX
  5
57F
  8
EBENE01
 62
     4
 10
1004.571
 20
-185.755
 30
0.0
 70
    48
  0
VERTEX
  5
580
  8
EBENE01
 62
     4
 10
1004.057
 20
-185.541
 30
0.0
 70
    40
  0
VERTEX
  5
581
  8
EBENE01
 62
     4
 10
1004.057
 20
-185.541
 30
0.0
 70
    48
  0
VERTEX
  5
582
  8
EBENE01
 62
     4
 10
1004.057
 20
-185.541
 30
0.0
 70
    40
  0
VERTEX
  5
583
  8
EBENE01
 62
     4
 10
1004.057
 20
-185.541
 30
0.0
 70
    48
  0
VERTEX
  5
584
  8
EBENE01
 62
     4
 10
1003.500
 20
-185.284
 30
0.0
 70
    40
  0
VERTEX
  5
585
  8
EBENE01
 62
     4
 10
1003.500
 20
-185.284
 30
0.0
 70
    48
  0
VERTEX
  5
586
  8
EBENE01
 62
     4
 10
1002.986
 20
-184.984
 30
0.0
 70
    40
  0
VERTEX
  5
587
  8
EBENE01
 62
     4
 10
1002.986
 20
-184.984
 30
0.0
 70
    48
  0
VERTEX
  5
588
  8
EBENE01
 62
     4
 10
1002.986
 20
-184.984
 30
0.0
 70
    40
  0
VERTEX
  5
589
  8
EBENE01
 62
     4
 10
1002.986
 20
-184.984
 30
0.0
 70
    48
  0
VERTEX
  5
58A
  8
EBENE01
 62
     4
 10
1002.472
 20
-184.641
 30
0.0
 70
    40
  0
VERTEX
  5
58B
  8
EBENE01
 62
     4
 10
1002.472
 20
-184.641
 30
0.0
 70
    48
  0
VERTEX
  5
58C
  8
EBENE01
 62
     4
 10
1002.044
 20
-184.341
 30
0.0
 70
    40
  0
VERTEX
  5
58D
  8
EBENE01
 62
     4
 10
1002.044
 20
-184.341
 30
0.0
 70
    48
  0
VERTEX
  5
58E
  8
EBENE01
 62
     4
 10
1002.044
 20
-184.341
 30
0.0
 70
    40
  0
VERTEX
  5
58F
  8
EBENE01
 62
     4
 10
1002.044
 20
-184.341
 30
0.0
 70
    48
  0
VERTEX
  5
590
  8
EBENE01
 62
     4
 10
1001.744
 20
-183.999
 30
0.0
 70
    40
  0
VERTEX
  5
591
  8
EBENE01
 62
     4
 10
1001.744
 20
-183.999
 30
0.0
 70
    48
  0
VERTEX
  5
592
  8
EBENE01
 62
     4
 10
1001.616
 20
-183.741
 30
0.0
 70
    40
  0
VERTEX
  5
593
  8
EBENE01
 62
     4
 10
1001.616
 20
-183.741
 30
0.0
 70
    48
  0
VERTEX
  5
594
  8
EBENE01
 62
     4
 10
1001.616
 20
-183.741
 30
0.0
 70
    40
  0
VERTEX
  5
595
  8
EBENE01
 62
     4
 10
1001.616
 20
-183.741
 30
0.0
 70
    48
  0
VERTEX
  5
596
  8
EBENE01
 62
     4
 10
1001.573
 20
-183.442
 30
0.0
 70
    40
  0
VERTEX
  5
597
  8
EBENE01
 62
     4
 10
1001.573
 20
-183.442
 30
0.0
 70
    48
  0
VERTEX
  5
598
  8
EBENE01
 62
     4
 10
1001.616
 20
-183.185
 30
0.0
 70
    40
  0
VERTEX
  5
599
  8
EBENE01
 62
     4
 10
1001.616
 20
-183.185
 30
0.0
 70
    48
  0
VERTEX
  5
59A
  8
EBENE01
 62
     4
 10
1001.616
 20
-183.185
 30
0.0
 70
    40
  0
VERTEX
  5
59B
  8
EBENE01
 62
     4
 10
1001.616
 20
-183.185
 30
0.0
 70
    48
  0
VERTEX
  5
59C
  8
EBENE01
 62
     4
 10
1001.701
 20
-182.928
 30
0.0
 70
    40
  0
VERTEX
  5
59D
  8
EBENE01
 62
     4
 10
1001.701
 20
-182.928
 30
0.0
 70
    48
  0
VERTEX
  5
59E
  8
EBENE01
 62
     4
 10
1001.873
 20
-182.628
 30
0.0
 70
    40
  0
VERTEX
  5
59F
  8
EBENE01
 62
     4
 10
1001.873
 20
-182.628
 30
0.0
 70
    48
  0
VERTEX
  5
5A0
  8
EBENE01
 62
     4
 10
1001.873
 20
-182.628
 30
0.0
 70
    40
  0
VERTEX
  5
5A1
  8
EBENE01
 62
     4
 10
1001.873
 20
-182.628
 30
0.0
 70
    48
  0
VERTEX
  5
5A2
  8
EBENE01
 62
     4
 10
1002.130
 20
-182.371
 30
0.0
 70
    40
  0
VERTEX
  5
5A3
  8
EBENE01
 62
     4
 10
1002.130
 20
-182.371
 30
0.0
 70
    48
  0
VERTEX
  5
5A4
  8
EBENE01
 62
     4
 10
1002.515
 20
-182.157
 30
0.0
 70
    40
  0
VERTEX
  5
5A5
  8
EBENE01
 62
     4
 10
1002.515
 20
-182.157
 30
0.0
 70
    48
  0
VERTEX
  5
5A6
  8
EBENE01
 62
     4
 10
1002.515
 20
-182.157
 30
0.0
 70
    40
  0
VERTEX
  5
5A7
  8
EBENE01
 62
     4
 10
1002.515
 20
-182.157
 30
0.0
 70
    48
  0
VERTEX
  5
5A8
  8
EBENE01
 62
     4
 10
1002.986
 20
-181.942
 30
0.0
 70
    40
  0
VERTEX
  5
5A9
  8
EBENE01
 62
     4
 10
1002.986
 20
-181.942
 30
0.0
 70
    48
  0
VERTEX
  5
5AA
  8
EBENE01
 62
     4
 10
1003.500
 20
-181.814
 30
0.0
 70
    40
  0
VERTEX
  5
5AB
  8
EBENE01
 62
     4
 10
1003.500
 20
-181.814
 30
0.0
 70
    48
  0
VERTEX
  5
5AC
  8
EBENE01
 62
     4
 10
1003.500
 20
-181.814
 30
0.0
 70
    40
  0
VERTEX
  5
5AD
  8
EBENE01
 62
     4
 10
1003.500
 20
-181.814
 30
0.0
 70
    48
  0
VERTEX
  5
5AE
  8
EBENE01
 62
     4
 10
1004.057
 20
-181.728
 30
0.0
 70
    40
  0
VERTEX
  5
5AF
  8
EBENE01
 62
     4
 10
1004.057
 20
-181.728
 30
0.0
 70
    48
  0
VERTEX
  5
5B0
  8
EBENE01
 62
     4
 10
1004.571
 20
-181.685
 30
0.0
 70
    40
  0
VERTEX
  5
5B1
  8
EBENE01
 62
     4
 10
1004.571
 20
-181.685
 30
0.0
 70
    48
  0
VERTEX
  5
5B2
  8
EBENE01
 62
     4
 10
1004.571
 20
-181.685
 30
0.0
 70
    40
  0
VERTEX
  5
5B3
  8
EBENE01
 62
     4
 10
1004.571
 20
-181.685
 30
0.0
 70
    48
  0
VERTEX
  5
5B4
  8
EBENE01
 62
     4
 10
1005.128
 20
-181.685
 30
0.0
 70
    40
  0
VERTEX
  5
5B5
  8
EBENE01
 62
     4
 10
1005.128
 20
-181.685
 30
0.0
 70
    48
  0
VERTEX
  5
5B6
  8
EBENE01
 62
     4
 10
1005.642
 20
-181.685
 30
0.0
 70
    40
  0
VERTEX
  5
5B7
  8
EBENE01
 62
     4
 10
1005.642
 20
-181.685
 30
0.0
 70
    48
  0
VERTEX
  5
5B8
  8
EBENE01
 62
     4
 10
1005.642
 20
-181.685
 30
0.0
 70
    40
  0
VERTEX
  5
5B9
  8
EBENE01
 62
     4
 10
1005.642
 20
-181.685
 30
0.0
 70
    48
  0
VERTEX
  5
5BA
  8
EBENE01
 62
     4
 10
1006.199
 20
-181.728
 30
0.0
 70
    40
  0
VERTEX
  5
5BB
  8
EBENE01
 62
     4
 10
1006.199
 20
-181.728
 30
0.0
 70
    48
  0
VERTEX
  5
5BC
  8
EBENE01
 62
     4
 10
1006.713
 20
-181.814
 30
0.0
 70
    40
  0
VERTEX
  5
5BD
  8
EBENE01
 62
     4
 10
1006.713
 20
-181.814
 30
0.0
 70
    48
  0
VERTEX
  5
5BE
  8
EBENE01
 62
     4
 10
1006.713
 20
-181.814
 30
0.0
 70
    40
  0
VERTEX
  5
5BF
  8
EBENE01
 62
     4
 10
1006.713
 20
-181.814
 30
0.0
 70
    48
  0
VERTEX
  5
5C0
  8
EBENE01
 62
     4
 10
1007.270
 20
-181.857
 30
0.0
 70
    40
  0
VERTEX
  5
5C1
  8
EBENE01
 62
     4
 10
1007.270
 20
-181.857
 30
0.0
 70
    48
  0
VERTEX
  5
5C2
  8
EBENE01
 62
     4
 10
1007.784
 20
-181.985
 30
0.0
 70
    40
  0
VERTEX
  5
5C3
  8
EBENE01
 62
     4
 10
1007.784
 20
-181.985
 30
0.0
 70
    48
  0
VERTEX
  5
5C4
  8
EBENE01
 62
     4
 10
1007.784
 20
-181.985
 30
0.0
 70
    40
  0
VERTEX
  5
5C5
  8
EBENE01
 62
     4
 10
1007.784
 20
-181.985
 30
0.0
 70
    48
  0
VERTEX
  5
5C6
  8
EBENE01
 62
     4
 10
1008.341
 20
-182.071
 30
0.0
 70
    40
  0
VERTEX
  5
5C7
  8
EBENE01
 62
     4
 10
1008.341
 20
-182.071
 30
0.0
 70
    48
  0
VERTEX
  5
5C8
  8
EBENE01
 62
     4
 10
1008.855
 20
-182.199
 30
0.0
 70
    40
  0
VERTEX
  5
5C9
  8
EBENE01
 62
     4
 10
1008.855
 20
-182.199
 30
0.0
 70
    48
  0
VERTEX
  5
5CA
  8
EBENE01
 62
     4
 10
1008.855
 20
-182.199
 30
0.0
 70
    40
  0
VERTEX
  5
5CB
  8
EBENE01
 62
     4
 10
1008.855
 20
-182.199
 30
0.0
 70
    48
  0
VERTEX
  5
5CC
  8
EBENE01
 62
     4
 10
1009.412
 20
-182.371
 30
0.0
 70
    40
  0
VERTEX
  5
5CD
  8
EBENE01
 62
     4
 10
1009.412
 20
-182.371
 30
0.0
 70
    48
  0
VERTEX
  5
5CE
  8
EBENE01
 62
     4
 10
1009.883
 20
-182.499
 30
0.0
 70
    40
  0
VERTEX
  5
5CF
  8
EBENE01
 62
     4
 10
1009.883
 20
-182.499
 30
0.0
 70
    48
  0
VERTEX
  5
5D0
  8
EBENE01
 62
     4
 10
1009.883
 20
-182.499
 30
0.0
 70
    40
  0
VERTEX
  5
5D1
  8
EBENE01
 62
     4
 10
1009.883
 20
-182.499
 30
0.0
 70
    48
  0
VERTEX
  5
5D2
  8
EBENE01
 62
     4
 10
1010.354
 20
-182.628
 30
0.0
 70
    40
  0
VERTEX
  5
5D3
  8
EBENE01
 62
     4
 10
1010.354
 20
-182.628
 30
0.0
 70
    48
  0
VERTEX
  5
5D4
  8
EBENE01
 62
     4
 10
1010.783
 20
-182.756
 30
0.0
 70
    40
  0
VERTEX
  5
5D5
  8
EBENE01
 62
     4
 10
1010.783
 20
-182.756
 30
0.0
 70
    48
  0
SEQEND
  5
5D6
  8
EBENE01
 62
     4
  0
TEXT
  5
5D7
  8
TEXT
 62
     7
 10
1153.869
 20
-88.663
 30
0.0
 40
9.617
  1
Offer No.:
 41
0.6600000000000001
  0
TEXT
  5
5D8
  8
TEXT
 62
     7
 10
1153.444
 20
-116.693
 30
0.0
 40
9.617
  1
Projekt:
 41
0.6600000000000001
  0
LINE
  5
5D9
  8
2
 10
1145.573
 20
-91.213
 30
0.0
 11
1466.133
 21
-91.213
 31
0.0
  0
LINE
  5
5DA
  8
2
 10
985.293
 20
-61.472
 30
0.0
 11
1466.133
 21
-61.472
 31
0.0
  0
LINE
  5
5DB
  8
2
 10
985.293
 20
-163.696
 30
0.0
 11
1466.133
 21
-163.696
 31
0.0
  0
LINE
  5
5DC
  8
2
 10
985.293
 20
-120.955
 30
0.0
 11
1466.133
 21
-120.955
 31
0.0
  0
LINE
  5
5DD
  8
2
 10
985.293
 20
-206.438
 30
0.0
 11
985.293
 21
-61.472
 31
0.0
  0
LINE
  5
5DE
  8
2
 10
1145.573
 20
-206.438
 30
0.0
 11
1145.573
 21
-163.696
 31
0.0
  0
TEXT
  5
5DF
  8
TEXT
 62
     7
 10
993.307
 20
-161.025
 30
0.0
 40
10.685
  1
Einheit / unit:  mm
 41
0.6600000000000001
  0
LINE
  5
5E0
  8
2
 10
985.293
 20
-142.326
 30
0.0
 11
1145.573
 21
-142.326
 31
0.0
  0
TEXT
  5
5E1
  8
TEXT
 62
     7
 10
992.258
 20
-139.654
 30
0.0
 40
9.617
  1
Datum/Date:
 41
0.6600000000000001
  0
LINE
  5
5E2
  8
A2
 10
998.782
 20
-80.528
 30
0.0
 11
1048.070
 21
-80.528
 31
0.0
  0
LINE
  5
5E3
  8
5
 10
1001.321
 20
-85.871
 30
0.0
 11
1028.035
 21
-91.213
 31
0.0
  0
LINE
  5
5E4
  8
5
 10
1001.321
 20
-75.185
 30
0.0
 11
1028.035
 21
-69.843
 31
0.0
  0
LINE
  5
5E5
  8
5
 10
1001.321
 20
-80.528
 30
0.0
 11
1001.321
 21
-75.185
 31
0.0
  0
LINE
  5
5E6
  8
5
 10
1001.321
 20
-80.528
 30
0.0
 11
1001.321
 21
-85.871
 31
0.0
  0
CIRCLE
  5
5E7
  8
5
 10
1049.405
 20
-80.528
 30
0.0
 40
10.685
  0
LINE
  5
5E8
  8
5
 10
1028.035
 20
-69.843
 30
0.0
 11
1028.035
 21
-80.528
 31
0.0
  0
LINE
  5
5E9
  8
5
 10
1028.035
 20
-91.213
 30
0.0
 11
1028.035
 21
-80.528
 31
0.0
  0
LINE
  5
5EA
  8
A2
 10
1049.405
 20
-67.303
 30
0.0
 11
1049.405
 21
-93.753
 31
0.0
  0
CIRCLE
  5
5EB
  8
5
 10
1049.405
 20
-80.528
 30
0.0
 40
5.343
  0
LINE
  5
5EC
  8
A2
 10
1043.106
 20
-80.528
 30
0.0
 11
1062.630
 21
-80.528
 31
0.0
  0
LINE
  5
5ED
  8
2
 10
1075.816
 20
-99.584
 30
0.0
 11
1075.816
 21
-61.472
 31
0.0
  0
LINE
  5
5EE
  8
2
 10
1145.573
 20
-120.955
 30
0.0
 11
1145.573
 21
-61.472
 31
0.0
  0
LINE
  5
5EF
  8
2
 10
1145.573
 20
-163.696
 30
0.0
 11
1145.573
 21
-120.955
 31
0.0
  0
LINE
  5
5F0
  8
2
 10
985.293
 20
-99.584
 30
0.0
 11
1145.573
 21
-99.584
 31
0.0
  0
TEXT
  5
5F1
  8
TEXT
 62
     7
 10
993.307
 20
-118.284
 30
0.0
 40
9.617
  1
A&D SD
 41
0.6600000000000001
  0
TEXT
  5
5F2
  8
EBENE01
 10
-15.155
 20
859.263
 30
0.0
 40
9.617
  1
Dimension drawing subject to change. We reserve the right to change constructional details.
 41
0.8722550953320167
 72
     5
 11
693.655
 21
859.263
 31
0.0
  0
TEXT
  5
5F3
  8
EBENE01
 10
-15.155
 20
875.291
 30
0.0
 40
9.617
  1
Massbild unverbindlich. Aenderungen konstruktiver Einzelheiten vorbehalten.
 41
0.9022277227722767
 72
     5
 11
569.065
 21
875.291
 31
0.0
  0
TEXT
  5
5F4
  8
TEXT
 62
     7
 10
1061.145
 20
-139.654
 30
0.0
 40
9.617
  1
23.11.2010
 41
0.6600000000000001
  0
TEXT
  5
5F5
  8
TEXT
 62
     7
 10
1154.213
 20
-72.858
 30
0.0
 40
9.617
  1
Angebot-Nr.:
 41
0.6600000000000001
  0
TEXT
  5
5F6
  8
TEXT
 62
     7
 10
1153.779
 20
-102.330
 30
0.0
 40
9.617
  1
Anlage:
 41
0.6600000000000001
  0
TEXT
  5
5F7
  8
EBENE01
 10
13.152
 20
-200.747
 30
0.0
 40
13.357
  1

  0
ENDSEC
  0
EOF
